Darwin Deez - Radar Detector tab

-------------------------------------------------------------------------------
			     RADAR DETECTOR - Darwin Deez
-------------------------------------------------------------------------------

Tabbed By : Ace Gunner
e-mail: 

Tuning: Both E strings removed. ADGB become F#, D, G#, B. I think it's the
same tuning for most (if not all) Deez songs. I have no idea what the chords are
called. I've put in the muted strum pattern for the intro and "it's only been a
week", but your best bet would be to listen to the song to hear the variations
and the other times it's used.

Intro

B |12-xxxxxxxxxxx12x-12-xxxxxxxxxxx12x----------------------------------------|
G#|12-xxxxxxxxxxx12x-12-xxxxxxxxxxx12x----------------------------------------|
D |9--xxxxxxxxxxx9-x-9--xxxxxxxxxxx9-x----------------------------------------|
F#|10-xxxxxxxxxxx10x-10-xxxxxxxxxxx10x----------------------------------------|

   You and I buy starmaps and drive my car around Los Angeles
B |14------------14--14------------14--12------------12--12------------12-----|
G#|13------------13--13------------13--12------------12--12------------12-----|
D |14------------14--14------------14--9-------------9---9-------------9------|
F#|12------------12--12------------12--10------------10--10------------10-----|

   You and I buy starmaps and ding-dong-ditch a televangelist        
B |14------------14--14------------14--12------------12--12----------------12-|
G#|13------------13--13------------13--12------------12--12----------------12-|
D |14------------14--14------------14--9-------------9---9-----------------9--|
F#|12------------12--12------------12--10------------10--10----------------10-|

   It's only been a week,            But I know that you are mine to keep
B |x-000000x-000000x-00000000000000---000000--000000---0000-00---0000-00------|
G#|7-xxx7x-8-xxx8x-7-xxxxxxxxxxxxxx-7----7--8----8--12----12--10----10--------|
D |4-xxx4x-6-xxx6x-4-xxxxxxxxxxxxxx-4----4--6----6--14----14--14----14--------|
F#|5-xxx5x-7-xxx7x-5-xxxxxxxxxxxxxx-5----5--7----7--0-----0---0-----0---------|

    You are a Radar Detector
B |5-----------------------12------------12-----------------------------------|
G#|5-----------------------12------------12\----------------------------------|
D |2-----------------------9-------------9-\----------------------------------|
F#|3-----------------------10------------10\----------------------------------|

    I drive a thousand miles an hour, I won't go on and on
B |x-----------x--x-----7-12-----12-5-00000000000-----------------------------|
G#|5-----------5--8-----7-12-----12-5-----------------------------------------|
D |2-----------2--6-----4-9------9--2-----------------------------------------|
F#|3-----------3--7-----5-10-----10-3-----------------------------------------|

B |5--x-----x---x-----x---x---------------------------------------------------|
G#|5/-12----12--10----10--8---------------------------------------------------|
D |2/-14----14--14----14--9---------------------------------------------------|
F#|3/-0-----0---0-----0---10--------------------------------------------------|

	(Basically the same thing once more)



 You are a Radar Detector, you are a Radar Detector...
 	(Mute bottom 3 strings with 3 fingers in chord shape, let B string ring out)
 	(Listen to the song to find the pattern for these chords)
B |x--------x--------x--------------------------------------------------------|
G#|5--------8--------12-------------------------------------------------------|
D |2--------6--------9--------------------------------------------------------|
F#|3--------7--------10-------------------------------------------------------|

	(Goes from 3 chord progression to 4)
B |x--------x--------x--------x-----------------------------------------------|
G#|5--------8--------12-------14----------------------------------------------|
D |2--------6--------9--------11----------------------------------------------|
F#|3--------7--------10-------12----------------------------------------------|

You are a Radar Detector
B |12-12-12-12-12-12-12-x\----------------------------------------------------|
G#|12-12-12-12-12-12-12-x\----------------------------------------------------|
D |9--9--9--9--9--9--9--x\----------------------------------------------------|
F#|10-10-10-10-10-10-10-x\----------------------------------------------------|

                                                and I'm driving, I'm driving...
B |12------------12--12------------12x---------------------17----------12-----|
G#|12------------12--12------------12x--------------------------15-------12---|
D |9-------------9---9-------------9-x------------------/16---------/11-------|
F#|10------------10--10------------10x----------------------------------------|

(These 2 bits are in the background at different points from the second verse)
				            B |---------------|---------------|
				            G#|17-12----------|15-12----------|
				            D |------16-14----|------16-14----|
				            F#|---------------|---------------|

| /  slide up
| \  slide down
| h  hammer-on
| p  pull-off
| ~  vibrato
| +  harmonic
| x  Mute note
===============================================================================
Tap to rate this tab
 
# A B C D E F G H I J K L M N O P Q R S T U V W X Y Z