Darwin Deez - Up In The Clouds tab

 Tuning : Standard
 Tabbed by : ChesterAbellera^_^

 This is an easier way to play "Up In The Clouds" without the weird tunings shown 
in the Version 1 tab.
 It's basically the same shapes and makes the same exact sound, just easier to 
play the chord shapes.




 

 Intro/Verse/Chorus
                       x2
 e|---------------------| |---------------------------|---------------------------|
 B|--9-9--9-----9-9--9--| |--4-4--4-----4-4--4--------|--4-4--4----4-4--4---------|
 G|--9-9--9-----9-9--9--| |--4-4--4-----4-4--4---11\--|--4-4--4----4-4--4---8--6--|
 D|--8-8--8-----9-9--9--| |--4-4--4-----4-4--4----x\--|--4-4--4----4-4--4---x--x--|
 A|--9-9--9-----x-x--x--| |--x-x--x-----x-x--x---11\--|--x-x--x----x-x--x---6--4--|
 E|-------------9-9--9--| |--2-2--2-----4-4--4--------|--2-2--2----4-4--4---------|

 Pre-Chorus
 e|------------|------------|-------------|-------------|
 B|--9--9---9--|--9--9---9--|--12-12--12--|--11-11--11--| 
 G|--x--x---x--|--x--x---x--|---x--x---x--|---x--x---x--| <---------------------------------------
 D|--9--9---9--|--9--9---9--|--13-13--13--|--11-11--11--|                                        |
 A|--7--7---7--|--7--7---7--|--11-11--11--|---9--9---9--|                                        |
 E|------------|------------|-------------|-------------|                                        |
      Emajor   |   Emajor   |   Abminor   |   F#major     <- Barre chords that
 correspond these shapes (easier to play too)

 Bridge
 e|------------|-------------|------------|-------------|
 B|--9--9---9--|--11-11--11--|--9--9---9--|--11-11--11--| 
 G|--x--x---x--|---x--x---x--|--x--x---x--|---x--x---x--| <--------------------------------------
 D|--9--9---9--|--11-11--11--|--9--9---9--|--11-11--11--|                                       |
 A|--7--7---7--|---9--9---9--|--7--7---7--|---9--9---9--|                                       |
 E|------------|-------------|------------|-------------|                                       |
      Emajor   |   F#major   |   Emajor   |   F#major     <- Barre chords that
 correspond these shapes (easier to play too)

 




 

 Pre-Chorus (PM = Palm muted)
 e|---------------------------|
 b|---------------------------|
 G|---------------------------|
 D|-----------13-11-----------|
 A|--11-11-11-------11-11-11--|
 E|---------------------------|
 PM...........................
 
 Chorus
 e|------------------|------------------|
 B|--16--16--16--16--|--14--14--14--14--|
 G|--16--16--16--16--|--16--16--16--16--|
 D|------------------|------------------|
 A|------------------|------------------|
 E|------------------|------------------|
      
 Post-Chorus/Bridge
 e|------------------------------------------------------------|
 b|------------------------------------------------------------|
 G|----------------11-11-------------------------13-13---------|
 D|--9/11---9/11-----------9/11----9/11---9/11-----------9/11--|
 A|------------------------------------------------------------|
 E|------------------------------------------------------------|
    



(Rhythm Guitar strumming pattern is quite similar to the strumming pattern in the 
verse of Michael Jackson's "Beat It")

************************************

| /   slide up
| \   slide down
| h   hammer-on
| p   pull-off
| ~   vibrato
| +   harmonic
| x   Mute note
| b   Bend
| pb  Pre-bend
| br  Bend release
| pbr Pre-bend release
| brb Bend release bend

************************************
Tap to rate this tab
 
# A B C D E F G H I J K L M N O P Q R S T U V W X Y Z