Song name
# A B C D E F G H I J K L M N O P Q R S T U V W X Y Z

Darwin Deez - Deep Sea Divers tab

Please rate and comment if you think there should be any changes :)

Intro

                   
e -----------------||
B -----------------||
G -9---9---9---9---|| This sounds like its fingerpicked, though using a pick
D -9---9---9---9---|| is fine
A -x---x---x---x---||
e -9---9---9---9---||

Verse1:

e ----------------------------------|
B -----------------9---9---9---9-10-|
G -9---9---9---9---9---9---9---9-9--|
D -9---9---9---9---x---x---x---x-x--|
A -x---x---x---x---7---7---7---7-9--|
e -9---9---9---9--------------------|

e -----------------------------------|
B -----------------10--10--10--10-12-|
G -9---9---9---9---9---9---9---9--11-|
D -9---9---9---9---x---x---x---x--x--|
A -x---x---x---x---9---9---9---9--11-|
e -9---9---9---9---------------------|

e -------------------------------------------------|
B -----------------9---9---9---9-----0---0---0---0-|
G -9---9---9---9---9---9---9---9---6---6---6---6---|
D -9---9---9---9---x---x---x---x---7---7---7---7---|
A -x---x---x---x---7---7---7---7---7---7---7---7---|
e -9---9---9---9-----------------------------------|

                                 Let the open B ring through at this point

e ---------------------------------|
B -4-4-4-4-4-4-4-4-4-4-4-4-4-4-4-4-|
G -4-4-4-4-4-4-4-4-4-4-4-4-4-4-4-4-|
D -4-4-4-4-4-4-4-4-4-4-4-4-4-4-4-4-|
A -x-x-x-x-x-x-x-x-x-x-x-x-x-x-x-x-|
E -4-4-4-4-4-4-4-4-4-4-4-4-4-4-4-4-|

Repeat the verse.

Backing guitar in second verse:


             X6             X2
e -----------||-------------||
B ----14-----||----14-------||
G -16--------||-16----------||
D -------18--||-------16-14-||
A -----------||-------------||
E -----------||-------------||

             X6             X4
e -----------||-------------||
B ----14-----||----14-------||
G -16--------||-16----------||
D -------18--||-------16-14-||
A -----------||-------------||
E -----------||-------------||

CHORUS

e -----------------------------------|
B ---0---0---0---0---0---0----0----0-|
G -8---8---8---8---9---9---13---13---|
D -9---9---9---9---11--11--14---14---|
A -9---9---9---9---11--11--14---14---|
E -----------------------------------|

e ---------------------------------|
B ---0---0---0---0---0---0---0---0-|
G -8---8---8---8---6---6---6---6---|
D -9---9---9---9---7---7---7---7---|
A -9---9---9---9---7---7---7---7---|
E ---------------------------------|


e -----------------------------------|
B ---0---0---0---0---0---0----0----0-|
G -8---8---8---8---9---9---13---13---|
D -9---9---9---9---11--11--14---14---|
A -9---9---9---9---11--11--14---14---|
E -----------------------------------|

e ---------------------------------|
B ---0---0---0---0---0---0---------|
G -8---8---8---8---6---6---6-------|
D -9---9---9---9---7---7---7-------|
A -9---9---9---9---7---7---7-------|
E ---------------------------------|

Backing guitar for chorus:

e -14----14----14----14----16----16----16----16----|
B ----16----16----16----16----14----14-------------|
G ----------------------------------------16----16-|
D -------------------------------------------------|
A -------------------------------------------------|
E -------------------------------------------------|

e -14----14----14----14----12----12----12----12----|
B ----16----16----16----16----14----14----14----14-|
G -------------------------------------------------|
D -------------------------------------------------|
A -------------------------------------------------|
E -------------------------------------------------|

e -14----14----14----14----16----16----16----16----|
B ----16----16----16----16----14----14-------------|
G ----------------------------------------16----16-|
D -------------------------------------------------|
A -------------------------------------------------|
E -------------------------------------------------|

e -14----14----14----14----12----12----12----------|
B ----16----16----16----16----14----14-------------|
G -------------------------------------------------|
D -------------------------------------------------|
A -------------------------------------------------|
E -------------------------------------------------|

Repeat VERSE 1

(backing guitar comes in half way through)

Repeat CHORUS

This comes just before the bridge:

e ---------------------------------|
B -4-4-4-4-4-4-4-4-4-4-4-4-4-4-4-4-|
G -4-4-4-4-4-4-4-4-4-4-4-4-4-4-4-4-|
D -4-4-4-4-4-4-4-4-4-4-4-4-4-4-4-4-|
A -x-x-x-x-x-x-x-x-x-x-x-x-x-x-x-x-|
E -4-4-4-4-4-4-4-4-4-4-4-4-4-4-4-4-|

Bridge:

e -9--9--9--xxxx--9--9--9--xxxx--11-11-11--xxxx--------------------|
B -10-10-10-xxxx--10-10-10-xxxx--12-12-12--xxxx--------------------|
G -9--9--9--xxxx--9--9--9--xxxx--11-11-11--xxxx--10--10---10--xxxx-|
D -9--9--9--xxxx--9--9--9--xxxx--9--9--9---xxxx--9---9----9---xxxx-|
A -----------------------------------------------11--11---11--xxxx-|
E -----------------------------------------------------------------|

e -9--9--9--xxxx--------------------------------|
B -10-10-10-xxxx--7--7--7-xxxx----0---0---0---0-|
G -9--9--9--xxxx--8--8--8-xxxx--9---9---9---9---|
D -9--9--9--xxxx--9--9--9-xxxx--9---9---9---9---|
A ----------------9--9--9-xxxx--x---x---x---x---|
E ------------------------------9---9---9---9---|

Backing guitar for bridge:

               x3
e -------------||
B ----14-------||
G -16----------||
D -------16-14-||
A -------------||
E -------------||


e -----------|
B ----14-----|
G -16--------|
D -------18--|x1
A -----------|
E -----------|


                
e -------------|
B ----14-------|
G -16----------|
D -------16-14-|x1
A -------------|
E -------------|


             x3
e -----------||
B ----14-----||
G -16--------||
D -------18--||
A -----------||
E -----------||

Repeat chorus

And that's it. Please rate this!
Tap to rate this tab
# A B C D E F G H I J K L M N O P Q R S T U V W X Y Z