Song name
# A B C D E F G H I J K L M N O P Q R S T U V W X Y Z

Darwin Deez - The Coma Song tab

The Coma Song by Darwin Deez

Tabbed by:Sunburst Steve
Email:stgonzalez16@yahoo.com

Standard tuning

#----------------------------------PLEASE NOTE---------------------------------#
#This file is the author's own work and represents their interpretation of the #
#song. You may only use this file for private study, scholarship, or research. #
#------------------------------------------------------------------------------#


*intro
e----------------------------------------|
b10-10-10-10-10-10-10-10-9-9-9-9-9-9-9-9-|
gx--x--x--x--x--x--x--x--x-x-x-x-x-x-x-x-|
d11 11 11 11 11 11 11 11-9-9-9-9-9-9-9-9-|  repeat
a9--9--9--9--9--9--9--9--7-7-7-7-7-7-7-7-|
e----------------------------------------|

e----------------------------------------|
b7-7-7-7-7-7-7-7-7-7-7-7-9-9-9-9---------|
gx-x-x-x-x-x-x-x-x-x-x-x-x-x-x-x---------|
d7-7-7-7-7-7-7-7-7-7-7-7-9-9-9-9---------|  repeat
a5-5-5-5-5-5-5-5-5-5-5-5-7-7-7-7---------|
e----------------------------------------|

e------------------------------------------------------|
b7-7-7-7-7-7-7-7-7-7-7-7-7-7-7-7-----------------3-----|
gx-x-x-x-x-x-x-x-x-x-x-x-x-x-x-x-6-6-6-6-6-6-6-6-x-----|
d7-7-7-7-7-7-7-7-7-7-7-7-7-7-7-7-x-x-x-x-x-x-x-x-4 X24-|
a5-5-5-5-5-5-5-5-5-5-5-5-5-5-5-5-7-7-7-7-7-7-7-7-2-----|
e--------------------------------5-5-5-5-5-5-5-5-------|

e-------------------------------------------------------|
b----------------9-9-9-10-10-9-9---3------------5-5-5-5-|
g6-6-6-6-6-6-6-6-x-x-x-x--x--x-x-9-x------------x-x-x-x-|
dx-x-x-x-x-x-x-x-9-9-9-9--9--9-9-9-4- X12-------6-6-6-6-|
a7-7-7-7-7-7-7-7-7-7-7-7--7--7-7-7-2------------4-4-4-4-|
e5-5-5-5-5-5-5-5----------------------------------------|

repeat intro

on this part i'm 99% sure
e-------------------(8)-(8)-(8)-(8)-------------------|
b13----9-----10----6-6-6-6-6-6-6-6-6--3----7----9-----|
gx-----x-----x-----x-x-x-x-x-x-x-x-x--x----x----x-----|
d13-X8-10-X8-10-X8-7-7-7-7-7-7-7-7-7--4-X8-7-X8-9-X16-|
a11----8-----8-----5-5-5-5-5-5-5-5-5--2----5----7-----|
e-----------------------------------------------------|

e-----------------------------------------|
b3----------9-9-9-10-10-9-9-----------3-3-|
gx-----6----x-x-x-x--x--x-x-9---------x-x-|
d4-X16-x-X8-9-9-9-10-10-9-9-9--repeat-4-4-|
a2-----7----7-7-7-7--7--7-7-7---------2-2-|
e------5----------------------------------|

*guitar break

repeat intro

enjoy
Tap to rate this tab
 
# A B C D E F G H I J K L M N O P Q R S T U V W X Y Z