Song name
# A B C D E F G H I J K L M N O P Q R S T U V W X Y Z

Darwin Deez - Bed Space tab

This is Bed Space by Darwin Deez. I thought the other tabs of this were a little out so 
i thought id try correcting it.

The last chorus is a little iffy, hard to know if there isn't other notes hidden in it, 
but its still pretty accurate.

I have no idea what effects he's using for the backing guitar, hopefully someone can 
help me out?


PLEASE RATE THIS. It's a very good tab (:



INTRO/VERSE:

e|-------------------------------------------------------------------|
B|-9---9---9---9---9---9--9--9--9---9---9---9---9---9---9--9--9--9---|
G|-11--11--11--11--11--11-11-11-11--11--11--11--11--11--11-11-11-11--|
D|-11--11--11--11--11--11-11-11-11--11--11--11--11--11--11-11-11-11--|
A|-9---9---9---9---9---9--9--9--9------------------------------------|
E|----------------------------------11--11--11--11--11--11-11-11-11--|

The strumming pattern varies from intro to verse, so just listen out for little changes



This is played over the intro:

e|------------------------------------------------|
B|------------------------------------------------|
G|--10--------------11------------------11--------|
D|----11--------------11-------------15----13\11--|
A|------11--------------11--11/13/16--------------|
E|------------------------------------------------|



PRE CHORUS (you don't sleep here any more)

e|----------------------------------------------|
B|----------------------------------------------|
G|---8-8-x-x--8-8-x-x----10-10-x-x--10-10-x-x---|
D|---9-9-x-x--9-9-x-x----11-11-x-x--11-11-x-x---|
A|---9-9-x-x--9-9-x-x----11-11-x-x--11-11-x-x---|
E|---7-7-x-x--7-7-x-x----9--9--x-x--9--9--x-x---|

After the first pre chorus, you'll here this, leading back in to the verse:

e ------------------|
B ------------------|
G ------------------|
D --------11--------|
A --9/11-----13-----|
E ------------------|


and during the second verse, after the first line, the lead does this:

e ----------|
B ----------|
G ----------|
D ----------|
A -11--9----|
E -------11-|

CHORUS

(the dead notes aren't necessary, I just put them in to be consistent)

e|------------------------------------------------------|
B|------------------------11-x-x-11-x-x-----------------|
G|-8-x-x-8-x-x-8-x-x-8----11-x-x-11-x-x--8--x-x-8-------|
D|-9-x-x-9-x-x-9-x-x-9----11-x-x-11-x-x--11-x-x-11-x-x--|
A|-9-x-x-9-x-x-9-x-x-9----9--x-x-9--x-x--11-x-x-11-x-x--|
E|-7-x-x-7-x-x-7-x-x-7-------------------9--x-x-9--x-x--|

e|-----------------------------------------------------|
B|------------------------11-x-x-11-x-x-11-------------|
G|-8-x-x-8-x-x-8-x-x-8----11-x-x-11-x-x-11-x-x-8--x-x--|
D|-9-x-x-9-x-x-9-x-x-9----11-x-x-11-x-x-11-x-x-11-x-x--|
A|-9-x-x-9-x-x-9-x-x-9----9--x-x-9--x-x-9--x-x-11-x-x--|
E|-7-x-x-7-x-x-7-x-x-7---------------------x-x-9--x-x--|


e|-------------------------------------|
B|-------------------------------------|
G|---8-x-x--8-x-x-----10-x-x---10-x-x--|
D|---9-x-x--9-x-x-----11-x-x---11-x-x--|
A|---9-x-x--9-x-x-----11-x-x---11-x-x--|
E|---7-x-x--7-x-x-----9--x-x---9--x-x--|

e|-------------------------------------------|
B|-------------------------------------------|
G|---8-x-x--8-x-x-----10-x-x---10-10-10-10-10|
D|---9-x-x--9-x-x-----11-x-x---11-11-11-11-11|
A|---9-x-x--9-x-x-----11-x-x---11-11-11-11-11|
E|---7-x-x--7-x-x-----9--x-x---9--9--9--9--9-|


When second intro is played, this played by the lead guitar:

e|----------------------------------------------------------------------|
B|----------------------------------------------------------------------|
G|--10------------------------------10b11r10----------------------------|
D|----11-----------------11\8----------------11---------------11--------|
A|------11-----9/11\9/11-----------------------11-----9/11\13----11\9---|
E|--------------------------------------------------------------------9-|

NO GUITAR DURING SECOND VERSE


2nd chorus: (slight change at the last bit, added notes on the B and C# chords)


e|------------------------------------------------------|
B|------------------------11-x-x-11-x-x-----------------|
G|-8-x-x-8-x-x-8-x-x-8----11-x-x-11-x-x--8--x-x-8-------|
D|-9-x-x-9-x-x-9-x-x-9----11-x-x-11-x-x--11-x-x-11-x-x--|
A|-9-x-x-9-x-x-9-x-x-9----9--x-x-9--x-x--11-x-x-11-x-x--|
E|-7-x-x-7-x-x-7-x-x-7-------------------9--x-x-9--x-x--|

e|-----------------------------------------------------|
B|------------------------11-x-x-11-x-x-11-------------|
G|-8-x-x-8-x-x-8-x-x-8----11-x-x-11-x-x-11-x-x-8--x-x--|
D|-9-x-x-9-x-x-9-x-x-9----11-x-x-11-x-x-11-x-x-11-x-x--|
A|-9-x-x-9-x-x-9-x-x-9----9--x-x-9--x-x-9--x-x-11-x-x--|
E|-7-x-x-7-x-x-7-x-x-7---------------------x-x-9--x-x--|


e|-------------------------------------|
B|-------------------------------------|
G|---8-x-x--8-x-x-----10-x-x---10-x-x--|
D|---9-x-x--9-x-x-----11-x-x---11-x-x--|
A|---9-x-x--9-x-x-----11-x-x---11-x-x--|
E|---7-x-x--7-x-x-----9--x-x---9--x-x--|


e|-------------------------------------|
B|---7------7---------9--------9-------|
G|---8-x-x--8-x-x-----10-x-x---10-x-x--|
D|---9-x-x--9-x-x-----11-x-x---11-x-x--|
A|---9-x-x--9-x-x-----11-x-x---11-x-x--|
E|---7-x-x--7-x-x-----9--x-x---9--x-x--|


BRIDGE:


e|-------------------------8--x-8--8--x-8--x-8--8--x-|
B|---9---9-9---9---9-9-----8--x-8--8--x-8--x-8--8--x-|
G|---8-x-8-8-x-8-x-8-8-x---8--x-8--8--x-8--x-8--8--x-|
D|---9-x-9-9-x-9-x-9-9-x---8--x-8--8--x-8--x-8--8--x-|
A|---9-x-9-9-x-9-x-9-9-x---10-x-10-10-x-10-x-10-10-x-|
E|---7-x-7-7-x-7-x-7-7-x---8--x-8--8--x-8--x-8--8--x-|

last chord of bridge:

(too lazy to write the bridge riff again, just listen for the change)

e -3-X-3--3-X-|
B -3-X-3--3-X-|
G -4-X-4--4-X-|
D -3-X-3--3-X-|
A -5-X-5--5-X-|
E -3-X-3--3-X-|


(after each bar there are other guitar parts.
Listen out for it, I havent shown where they come in)

e ---------------|-------------|-----11------|--------------------------|
B -----------8---|------11--8--|--------10---|---------8----------------|
G -------------8-|-8/10--------|-/10---------|-8/10/12-----8------------|
D -8-10-8-10-----|-------------|-------------|--------------------------|
A ---------------|-------------|-------------|----------------8/10--6---|
E ---------------|-------------|-------------|------------------------8-|

let each ring throughout.



LAST CHORUS

(parts of this may be incorrect...
theres three different guitar parts which makes it hard to work out,
 but hopefully this is it)

rhythm guitar:

e --3---3------------------------------|
B --4---4----4---4----8----8-----6---6-|
G --3---3----5---5----8----8-----7---7-|
D --5---5----6---6----8----8-----8---8-|x2
A --3---3----6---6----6----6-----8---8-|
E -----------4---4---------------6---6-|



e -----------------------------------|
B ---4---4----6---6---4---4---6---6--|
G ---5---5----7---7---5---5---7---7--|
D ---6---6----8---8---6---6---8---8--|
A ---6---6----8---8---6---6---8---8--|
E ---4---4----6---6---4---4---6---6--|

1st backing guitar:

e ---------------------------------|
B -8-8-8-8-8-8-8-8-8-8-8-8-6-6-6-6-|
G -8-8-8-8-8-8-8-8-8-8-8-8-8-8-8-8-|
D ---------------------------------|
A ---------------------------------|
E ---------------------------------|

e 11-11-11-11-11-11-11-11-11-11-11-11-11-11-10-10-|
B 11-11-11-11-11-11-11-11-11-11-11-11-11-11-11-11-|
G ------------------------------------------------|
D ------------------------------------------------|
A ------------------------------------------------|
E ------------------------------------------------|

e 8-8-8-8-10-10-10-10-11-11-11-11-13--13--13--13-|
B 8-8-8-8-11-11-11-11---------------11--11--11---|
G -----------------------------------------------|
D -----------------------------------------------|
A -----------------------------------------------|
E -----------------------------------------------|

REPEAT LAST CHORUS.

After playing the "first" last chorus, theres another guitar that comes in with:

e -----------|
B -11-8------|
G ------10-8-|
D -----------| This is what i hear anyway. repeat until the end.
A -----------|
E -----------|

 Palm muted.



And hey presto.
Tap to rate this tab
# A B C D E F G H I J K L M N O P Q R S T U V W X Y Z