Song name
# A B C D E F G H I J K L M N O P Q R S T U V W X Y Z

Darwins Waiting Room - Feel So Stupid tab

#----------------------------------PLEASE NOTE--------------------------------#
#This file is the author's own work and represents their interpretation of the#
#song. You may only use this file for private study, scholarship, or research.#
#-----------------------------------------------------------------------------#
#-- File created with Instab - http://www.pconline.com/~smcarey/instab.html --#
#-----------------------------------------------------------------------------#

Author/Artist: Darwin's Waiting Room
Title: Fell so Stupid (table 9)
Album: Orphan
Transcribed by: ScOoTeR
Email: Staindysfuncton@cs.ocm

7 srting would be a very good chose to use.
Tuning:  B E A D G B

-7--0-4-5-7--0--3-5-0--0--4-5-7-3-0-8-10--------------------------------------|
------------------------------------------------------------------------------|
------------------------------------------------------------------------------|
------------------------------------------------------------------------------|
------------------------------------------------------------------------------|
-------------------------------------------0----------------------------------|
 Play twice

------------------------0--|-----------------------0--------------------------|
------------------------0--|-----------------------0--------------------------|
---------------------------|--------------------------------------------------|
---------------------------|--------------------------------------------------|
---------------------------|-3-2-2-3-2-2-3-2-2-3-2----------------------------|
-1-0-0-1-0-0-1-0-0-1-0-----|-1-0-0-1-0-0-1-0-0-1-0----------------------------|
 Play 4 times                play 4 times

------------------------------------0-----------------------------------------|
-44444444444-55555555555------------0-----------------------------------------|
-44444444444-55555555555-5555555--3-------------------------------------------|
-22222222222-33333333333-5555555--3-------------------------------------------|
-22222222222-33333333333-3333333--1-------------------------------------------|
------------------------------------------------------------------------------|


------------|-------|----3-2-0-----3-2-0---9-8--------------------------------|
------------|-------|--4-------5-4-------5------------------------------------|
------------|-------|---------------------------------------------------------|
------------|-2-----|---------------------------------------------------------|
-22-3-2-23-2|-2-----|---------------------------------------------------------|
-00-1-0-01-0|-0-----|---------------------------------------------------------|
                      clean

------------|-----------------------------------------------------------------|
------------|----999---999----------------------------------------------------|
------------|----xxx---xxx----------------------------------------------------|
------------|-2--777-2-777----------------------------------------------------|
-222-2-55-6-|-2------2--------------------------------------------------------|
-000-0-33-4-|-0------0--------------------------------------------------------|
 pm.
Tap to rate this tab
 
# A B C D E F G H I J K L M N O P Q R S T U V W X Y Z