Song name
# A B C D E F G H I J K L M N O P Q R S T U V W X Y Z

Daryl Braithwaite - The Horses tab

Saw this around and it didn't seem right to me, here is my attempt. 

All credit goes to Mick from Middle Street, this is a (poor) transposition of his 
YouTube lesson found here > 
http://www.youtube.com/watch?v=DGuvEtlzYjQ

Likely incorrect, never tabbed before. If so, contact me at u4414456[at]anu[dot]edu
[dot]au apologies for the crypsis but I've had troubles with spam and my uni email 
needs to remain unblocked ;)


Daryl Braithwaite - The Horses

Standard tuning
   
The first chord is strummed for a bar or so, most of it is intuitive particularly 
when you watch the video demonstration



Verses

  STRUM | PICK>>>

    B5      F#        C# 7th sus4     E
|---0---|---2------------|---4--------|----------|
|---2---|----------------|------------|---2------|
|---4---|-----4----4-----|----4---4---|----2-----|
|---4---|------3----3----|-----4-4----|------3---|
|---0---|-------2----2---|------2-----|------0---|
|---0---|-------2----2---|------------|------0---|


Bridge

          E                       E        B
|---0---0-2-----0---|     |---0---0-2------2---|
|-------------------|     |----------------2---|
|-------------------| x3  |----------------4---|
|------------1------|     |------------1---4---|
|-----0-----0-------|     |-----0-----0----4---|
|----0----0---------|     |----0----0------2---| 


Chorus
       (B/Cm played as upstrokes off-beat)
E                 B      Cm             A
   That's the way its gonna be, little darlin'
E                 B      Cm      A
   We'll go riding on the horses yea-yeah       
E      B    Cm              A
  Way up in the sky little darlin'
E         B         Cm                     A
  And if you fall, io'll pick you up, I'll pick you up

V1

We will fly
Way up high
Where the cold wind blows
Or in the sun
Laughing having fun
With the people that she knows
And if the situation
Should keep us separated
You know the world won't fall apart
And you will free the beautiful bird
That's caught inside your heart

Bridge

Can't you hear her?
Oh she cries so loud
Casts her wild note
Over water and cloud

Chorus

That's the way it's gonna be, little darlin'
We'll be riding on the horses, yeah
Way up in the sky, little darlin'
And if you fall I'll pick you up, pick you up

V2

You will grow
And until you go
I'll be right there by your side
And even then
Whisper the wind
And she will carry up your ride
I hear all the people of the world
In one bird's lonely cry
See them trying every way they know how
To make their spirit fly

Bridge

Can't you see him?
He's down on the ground
He has a broken wing
Looking all around

Chorus

That's the way it's gonna be, little darlin'
You go riding on the horses, yeah
Way up in the sky, little darlin'
And if you fall I'll pick you up, pick you up
Tap to rate this tab
 
# A B C D E F G H I J K L M N O P Q R S T U V W X Y Z