Song name
# A B C D E F G H I J K L M N O P Q R S T U V W X Y Z

Daryll-ann - My Only World tab

Help us improve GuitareTab! Take a short survey!
----------------------------------------------------------------------
			     My Only World - Daryll-Ann
----------------------------------------------------------------------
Tabbed by:deHufter
Email:kurtkill@hotmail.com
http://www.daryllann.com/

Intro guitar 1:
e|-------------5-4---------5---4--2~--2~------------------------------|
B|-----------------3~--1/3---3----2~--0~------------------------------|
G|--------------------------------2~--2~----2-times-------------------|
D|--------------------------------------------------------------------|
A|--------------------------------------------------------------------|
E|-(0)-2^1/2-0~-------------------------------------------------------|

Intro guitar 2:
e|------------17-16-----------17-16--14~-14~--------------------------|
B|------------------15~-13/15-----------------------------------------|
G|--------------------------------------------------------------------|
D|--------------------------------------------------------------------|
A|--------------------------------------------------------------------|
E|--------------------------------------------------------------------|

Verse: A7 Gmaj7 F#m Dmaj7
e|--3---3---3---3---2---5---2-----------------------------------------|
B|--2---3---2---3---2---7---2-----------------------------------------|
G|--2---4---2---4---2---6---2-----------------------------------------|
D|--2---4---2---4---4---7---4-----------------------------------------|
A|--0---5---0---5---4---5---4-----------------------------------------|
E|------3-------3---2-------2-----------------------------------------|

Solo:
e|-----------------------5---5~------------3^1/4~-2-------------------|
B|--2-3-5~--2-3-5-5-3-2~---2-----2-3-5~--2----------------------------|
G|--------------------------------------------------4~----------------|
D|--------------------------------------------------------------------|
A|--------------------------------------------------------------------|
E|--------------------------------------------------------------------|

Solo is played over verse chords

Bridge: (too wild.....) A C#m Bm Dmaj7
e|---5--4--2--5-------------------------------------------------------|
B|---5--5--3--7-------------------------------------------------------|
G|---6--6--4--6-------------------------------------------------------|
D|---7--6--4--7-------------------------------------------------------|
A|---7--4--2--5-------------------------------------------------------|
E|---5----------------------------------------------------------------|

That's that, it's a fairly easy song. You only have to listen for the 
timings. 

| /  slide up
| \  slide down
| h  hammer-on
| p  pull-off
| ~  vibrato
| +  harmonic
| x  Mute note
=======================================================================
Related for My Only World tab