Song name
# A B C D E F G H I J K L M N O P Q R S T U V W X Y Z

Das Pop - Forever tab

---------------------------------------------------------------------------------------
                             Das Pop - Forever (Chorus Only)
---------------------------------------------------------------------------------------
Tabbed By Rob Semmeling (smashedout@hotmail.com) on June 22nd 2001

Chords Used:

     F  G    G#   B   C   Eb
e-|----------------------------------------------|
B-|----------------------------------------------|
G-|---------------4---5---8----------------------|
D-|--3---5---6----4---5---8----------------------|
A-|--3---5---6----2---3---6----------------------|
E-|--1---3---4-----------------------------------|

---------
Chorus:
---------

C      B   G   F
Not at all forever

C       Eb   G#   F
It's so easy go - ing

C         B     G   F
Here's an happy ending:

C       Eb G#    F
Nothing is for - ever


-----------------------------------------------------------------------------------
Tap to rate this tab
# A B C D E F G H I J K L M N O P Q R S T U V W X Y Z