Song name
# A B C D E F G H I J K L M N O P Q R S T U V W X Y Z

Dashboard Confessional - Get Me Right tab

-------------------------------------------------------------------------------
			     Get Me Right - Dashboard Confessional 
-------------------------------------------------------------------------------
Tabbed by: Matt M 
Email: mattygamefreak@live.com.au

Tuning: 1/2 Step Down 

e|---------------------------------------------------------------------------|
B|---------------------------------------------------------------------------|
G|--7----7----7----7----7----7----7----6-------------------------------------|
D|99-9-99-9-99-9------77-7-77-7-77-7-----------------------------------------| x2
A|---------------77-7----------------77--------------------------------------|
E|---------------------------------------------------------------------------|

e|---------------------------------------------------------------------------|
B|---------------------------------------------------------------------------|
G|777777777777-777777777777--------------------------------------------------|
D|999999999999-777777777777--------------------------------------------------| x4
A|---------------------------------------------------------------------------|
E|---------------------------------------------------------------------------|

e|---------------------------------------------------------------------------|
B|---------------------------------------------------------------------------|
G|--7----7----7----7----7----7----7----6-------------------------------------|
D|99-9-99-9-99-9------77-7-77-7-77-7-----------------------------------------| x2
A|---------------77-7----------------77--------------------------------------|
E|---------------------------------------------------------------------------|

e|---------------------------------------------------------------------------|
B|---------------------------------------------------------------------------|
G|777777777777-777777777777--------------------------------------------------|
D|999999999999-777777777777--------------------------------------------------| x4
A|---------------------------------------------------------------------------|
E|---------------------------------------------------------------------------|

e|---------------------------------------------------------------------------|
B|---------------------------------------------------------------------------|
G|--7----7----7----7----7----7----7----6-------------------------------------|
D|99-9-99-9-99-9------77-7-77-7-77-7-----------------------------------------| x2
A|---------------77-7----------------77--------------------------------------|
E|---------------------------------------------------------------------------|

e|---------------------------------------------------------------------------|
B|---------------------------------------------------------------------------|
G|777777777777-------------------------77------------------------------------|
D|777777777777-777777777777-5555555555-77-555555555555-----------------------| x2
A|555555555555-777777777777-5555555555-55-555555555555-----------------------|
E|-------------555555555555-3333333333----333333333333-----------------------|

e|---------------------------------------------------------------------------|
B|---------------------------------------------------------------------------|
G|------------------77777777-------------------------------------------------|
D|44444444-55555555-77777777-77777777----------------------------------------| x4
A|44444444-55555555-55555555-77777777----------------------------------------|
E|22222222-33333333----------55555555----------------------------------------|

e|---------------------------------------------------------------------------|
B|---------------------------------------------------------------------------|
G|--7----7----7----7----7----7----7----6-------------------------------------|
D|99-9-99-9-99-9------77-7-77-7-77-7-----------------------------------------| x2
A|---------------77-7----------------77--------------------------------------|
E|---------------------------------------------------------------------------|

e|---------------------------------------------------------------------------|
B|---------------------------------------------------------------------------|
G|-------------777777777777--------------------------------------------------|
D|999999999999-xxxxxxxxxxxx--------------------------------------------------| x4
A|xxxxxxxxxxxx-555555555555--------------------------------------------------|
E|777777777777---------------------------------------------------------------|

e|---------------------------------------------------------------------------|
B|---------------------------------------------------------------------------|
G|--7----7----7----7----7----7----7----6-------------------------------------|
D|99-9-99-9-99-9------77-7-77-7-77-7-----9-----------------------------------| x2
A|---------------77-7----------------77--------------------------------------|
E|---------------------------------------------------------------------------|

Timing is pretty self-explanatory. 

| /  slide up
| \  slide down
| h  hammer-on
| p  pull-off
| ~  vibrato
| +  harmonic
| x  Mute note
===============================================================================
Tap to rate this tab
 
# A B C D E F G H I J K L M N O P Q R S T U V W X Y Z