Song name
# A B C D E F G H I J K L M N O P Q R S T U V W X Y Z

Dashboard Confessional - Hell On The Throat tab

Ok this is my first tab ever xD, basicly all you have to do is play BM, So if you 
see that it need any modifications feel free to send me a mail Hope you like it. God Bless
-------------------------------------------------------------------------------
			     Hell On the Throat - Dashboard Confessional
-------------------------------------------------------------------------------
Tabbed by: Daniel_xz
Email:daniel.xz.1@gmail.com

Tuning: Standard
Intro:
e|-------------------------------------------------|
B|------------4------------------------------------|
G|--4-----4----------------------------------------| x 4
D|-----4-------------------------------------------|
A|--2----------------------------------------------|
E|-------------------------------------------------|

Verse
e|---------------------------------------------------|
B|---------4----------4----------4----------5--------|
G|-4----4-----4-----4---4-----4-----4-----4----------|
D|----4----------2---------2-----------4-------------|
A|-2----------2---------2-----------2----------------|
E|---------------------------------------------------|

Chorus
e|---------------------------------------------------|
B|---------4----------4----------4----------4--------|
G|-4----4-----4-----4---4-----4-----4-----4----------|
D|----4----------4---------2-----------2-------------|
A|-2----------2---------2-----------2----------------|
E|---------------------------------------------------|


e|------------------------------------------------------|
B|---------5----------5---------------------------------|
G|-4-----4----4-----4-----------------------------------|
D|-----4---------2--------------------------------------|
A|-2--------2-------------------------------------------|
E|------------------------------------------------------|



| /  slide up
| \  slide down
| h  hammer-on
| p  pull-off
| ~  vibrato
| +  harmonic
| x  Mute note
===============================================================================
Tap to rate this tab
 
# A B C D E F G H I J K L M N O P Q R S T U V W X Y Z