Song name
# A B C D E F G H I J K L M N O P Q R S T U V W X Y Z

Dashboard Confessional - Tonight Ill Take What I Can Get chords

Highlighted       Show chord diagrams
Hey I saw the other tabs and I realized that the song is actually a combo of
the two. One person got the Intro, Verse and Chorus ALMOST correct, and the 
other person got the bridgey sounding part correct. Here it is:

Intro/Verse
e|-----0--0-0-0-----0--0-0-0-----0--0-0-0-----0--0-0-0----------------------|
B|-----1--1-1-1-----1--1-1-1-----1--1-1-1-----1--1-1-1----------------------|
G|-----0--0-0-0-----0--0-0-0-----0--0-0-0-----0--0-0-0----------------------|
D|-----2--2-2-2-----2--2-2-2-----2--2-2-2-----2--2-2-2----------------------|
A|--3--3--3-3-3--3--3--3-3-3--3--3--3-3-3--3--3--3-3-3----------------------|
E|--0--0--0-0-0--0--0--0-0-0--0--0--0-0-0--0--0--0-0-0----------------------|

(NOT CORRECT STRUMMING PAST THIS POINT)

Second Part of Verse
e|--0---0---0---0---0---0---0-----------------------------------------------|
B|--1---1---1---1---1---1---1-----------------------------------------------|
G|--0---0---2---2---2---0---0-----------------------------------------------|
D|--2---0---2---2---3---0---2-----------------------------------------------|
A|--3---2---0---0---0---2---3-----------------------------------------------|
E|--0---0---0---0---0---0---0-----------------------------------------------|

Chorus
e|--0-----0----0----0----0---0--0-------------------------------------------|
B|--1-----1----1----1----1---1--1-------------------------------------------|
G|--2-----2----0----0----0---0--0-------------------------------------------|
D|--3-----2----0----2----0---0--2-------------------------------------------|
A|--0-----0----2----3----2---2--3-------------------------------------------|
E|--0-----0----0----0----3---0--0-------------------------------------------|

(The part where the strumming changes)
Chords

Am
These dice are loaded 
F
And lord I am too 
C                                   G
I might be losing but I'm leaving soon. 

Am
With the prettiest girl 
F
To enter this dump, 
C                                                 G
She drank all of the whiskey but she left me the rum
Tap to rate this tab
 
# A B C D E F G H I J K L M N O P Q R S T U V W X Y Z