Song name
# A B C D E F G H I J K L M N O P Q R S T U V W X Y Z

Dashboard Confessional - Water And Bridges tab

-----------------------------------------------------------------------------
		  Water and Bridges - Dashboard Confessional
-----------------------------------------------------------------------------
(Tabbed by kaumorphio@web.de)


Not the whole song but something you can work with if you want to play the
complete song ;) I don't know if the tab is 100% right. Hope you like it anyhow!

Intro/Verse:
Eb|--------------------------------------------------------------------------|
Bb|--------5-----------5-----------7-----------5-----------5-----------5-----|
Gb|-----6-----6-----6-----6-----6-----6-----4-----4-----2-----2-----4-----4--|
Db|--7-----------6-----------4-----------2-----------0-----------2-----------|
Ab|--------------------------------------------------------------------------|
Eb|--------------------------------------------------------------------------|


Chorus:
Eb|----------------------------|
Bb|----------------------------|
Gb|-----6--7-----7-------------|
Db|--7--6--7--4--7--7----------|
Ab|--7--4--5--4--5--7----------|
Eb|--5--------2-----5----------|

Bridge:
Eb|------------------------------------------|
Bb|------------------------------------------|
Gb|-----------2-2--7-7------------7----------|
Db|-4-4--2-2--2-2--7-7--------4-2-7----------|
Ab|-4-4--2-2--0-0--5-5--------4-2-5----------|
Eb|-2-2--0-0------------------2-0------------|
The three chords I simply added here at the end are played at the end of the Bridge.
Tap to rate this tab
# A B C D E F G H I J K L M N O P Q R S T U V W X Y Z