Song name
# A B C D E F G H I J K L M N O P Q R S T U V W X Y Z

Dashboard Confessional - This Bitter Pill tab

Tabbed by:Mike D.
Email:Savestheday36@yahoo.com

So the tab (version 2) that is tabbed by GuitarPlaynFool, is almost 100% correct with 
discrepancy in the outro

Tuning:1/2 step Eb
Verse:1
Verse:
Eb|--0---0---0---0---0---0---0--|
Bb|--0---0---0---0---0---0---0--|
Gb|--4h5-4---0---0---0---4---2--|  Play 3x
Db|--0---0---0---2---4---0---0--|
Ab|--5---5---5---3---5---5---3--|
Eb|-----------------------------|

End of Verse:  "Swallow, choke..."
Eb|--0---0---0---0--|
Bb|--0---0---0---0--|
Gb|--0---0---4---0--|
Db|--2---4---0---0--|
Ab|--3---5---5---5--|
Eb|-----------------|

Chorus:  "And this bitter pill..."
Eb|--3----x--- 0---x----------|
Bb|--3--/- 7---5---7----------|
Gb|--0--/-7---0---7--|  Play--| 2x
Db|--0---  0--  7---0---------|
Ab|--2----0---7---0-----------|
Eb|--3-------- 0--------------|

End of Chorus:
Eb|--0---x---0---0--|
Bb|--0---7---0---0--|
Gb|--5---7---4---0--|
Db|--7---0---0---0--|
Ab|--7---0---5---5--|
Eb|-----------------|

Second Chorus:
Eb|--3----x---0---x--|
Bb|--3-/--7---5---7--|
Gb|--0-/--7---0---7--|  Play 2x
Db|--0----0---7---0--|
Ab|--2----0---7---0--|
Eb|--3--------0------|

End of Chorus
Eb|--0---x--|
Bb|--0---7--|
Gb|--5---7--|
Db|--7---0--|
Ab|--7---0--|
Eb|---------|

Outro: "Wearing out..."
Eb|--0---0---0---0---0---0---0---------------|
Bb|--0---0---0---0---0---0---0---7-----------|
Gb|--0---0---0---0---0---0---4---7--|  Play--| 2x
Db|--0---4---5---2---4---5---0---0-----------|
Ab|--2---2---2---2---2---2---5---0-----------|
Eb|--3---3---3---0---0---0-------------------|

and End on G |-3-| Also please note that on lighter strumming parts you might not want to strum
                         |-3-|
                         |-0-|
                         |-0-|
                         |-2-|
                         |-3-|
on every string. Another tip to make it sound identical is to slide up anytime that you 
about to play |-0-|
        |-7-|
        |-7-|
        |-0-|
        |-0-|
        |-x-|      Feel free to contact me for any questions.
************************************

| /   slide up
| \   slide down
| h   hammer-on
| p   pull-off
| ~   vibrato
| +   harmonic
| x   Mute note
| b   Bend
| pb  Pre-bend
| br  Bend release
| pbr Pre-bend release
| brb Bend release bend

************************************
Tap to rate this tab
 
# A B C D E F G H I J K L M N O P Q R S T U V W X Y Z