Song name
# A B C D E F G H I J K L M N O P Q R S T U V W X Y Z

Dashboard Confessional - A Plain Morning tab

-------------------------------------------------------------------------------
		    A Plain Morning - Dashboard Confessional
-------------------------------------------------------------------------------
Tabbed by: dashboardknoall
Email: baseballer408@yahoo.com

Tuning: Standard EADGBe (Half-Step Down)

Ok here it is, this is the 100% correct tab, well kinda, this is actually just the chords, 
but if your a decent guitarist and you're familiar with the song, you can figure out 
the strumming pattern pretty easily. If you have any questions please email me!!!!
But be aware, this song can be difficult for people with small hands.


 Verse:
 (And) It's yet to be determined, but the air is...        

       G         Cadd2
eb|-----3-----------0---------|
Bb|-----3-----------X---------|
Gb|-----0-----------7---------|
Db|-----0-----------5---------|
Ab|-----2-----------3---------|
Eb|-----3-----------X---------|


  thick and my hope is feeling worn. I'm missing...

    Bm(add4)   Cadd2(vii)
eb|-----0-----------8---------|
Bb|-----3-----------8---------|
Gb|-----4-----------0---------|
Db|-----4-----------0---------|
Ab|-----2-----------7---------|
Eb|-----X-----------8---------|


  home and I'm glad your not a part of this, there's part of me that...

     Esus2       Csus2
eb|-----X-----------X---------|
Bb|-----X-----------X---------|
Gb|-----11----------X---------|
Db|-----9-----------12--------|
Ab|-----7-----------10--------|
Eb|-----X-----------8---------|


  will be missed.

     Gsus2                    Esus2   Fsus2
eb|-----X----------------------X----X-/-X--------|
Bb|-----X----------------------X----X-/-X--------|
Gb|-----14---------------------11---11/-12-------|
Db|-----12---------------------9----9-/-10-------|
Ab|-----10---------------------7----7-/-8--------|
Eb|-----X----------------------X----X-/-x--------|


  And the phone is always dead to me, so i can't tell you the...

     Csus2      Esus2 
eb|-----X----------X----------|
Bb|-----X----------X----------|
Gb|-----X----------11---------|
Db|-----12---------9----------|
Ab|-----10---------7----------|
Eb|-----8----------X----------|


  temperature is dropping and it feels like,

     Gmaj7/6       G6        Em9      Gsus2/A
eb|-----0----------0----------X----------X---------|
Bb|-----0----------0----------7----------10--------|
Gb|-----11---------0----------0----------0---------|
Db|-----12---------12---------0----------0---------|
Ab|-----10---------10---------7----------0---------|
Eb|-----X----------X----------X----------X---------|


 Chorus: 
  It's colder that it ought to be in March. And I still got a...

       G(x)     Dadd4/F#
eb|-----X----------X----------|
Bb|-----12---------10---------|
Gb|-----0----------0----------|
Db|-----0----------0----------|
Ab|-----10---------9----------|
Eb|-----X----------X----------|


  day or two ahead of me till i'll be heading home into your arms again.

    Cadd2(vii)               Em9   Gmaj7/A  Gsus2/A    
eb|-----8---------------------X-------X--------X--------|
Bb|-----8---------------------7-------7--------10-------|
Gb|-----0---------------------0-------0--------0--------|
Db|-----0---------------------0-------0--------0--------|  
Ab|-----7---------------------7-------0--------0--------|
Eb|-----8---------------------X-------X--------X--------|


    And the people here are asking after you. It doesnt make it... 

       G(x)     Dadd4/F#
eb|-----X----------X----------|
Bb|-----12---------10---------|
Gb|-----0----------0----------|
Db|-----0----------0----------|
Ab|-----10---------9----------|
Eb|-----X----------X----------|


   easier. It doesn't make it easier to be away.

    Cadd2(vii)               Em9   Gmaj7/A  Gsus2/A    G/A
eb|-----8---------------------X-------X--------X--------|
Bb|-----8---------------------7-------7--------10-------|
Gb|-----0---------------------0-------0--------0--------|
Db|-----0---------------------0-------0--------0--------|  
Ab|-----7---------------------7-------0--------0--------|
Eb|-----8---------------------X-------X--------X--------|


   I'd like to hire a plane. I'd see you in the morn-...

       G(x)     Dadd4/F#
eb|-----X----------X----------|
Bb|-----12---------10---------|
Gb|-----0----------0----------|
Db|-----0----------0----------|
Ab|-----10---------9----------|
Eb|-----X----------X----------|


  -ing. When the day is fresh, I'm coming home again.                  

    Cadd2(vii)               Em9   Gmaj7/A  Gsus2/A                     
eb|-----8---------------------X-------X--------X--------|                                 
Bb|-----8---------------------7-------7--------10-------|  
Gb|-----0---------------------0-------0--------0--------|   
Db|-----0---------------------0-------0--------0--------|  
Ab|-----7---------------------7-------0--------0--------|           
Eb|-----8---------------------X-------X--------X--------| 


   Coming home again, Coming home again.

       G(x)     Dadd4/F#
eb|-----X----------X----------|
Bb|-----12---------10---------|
Gb|-----0----------0----------|
Db|-----0----------0----------|
Ab|-----10---------9----------|
Eb|-----X----------X----------|


   When the day is fresh, I'm coming home again.                      again.

   Cadd2(vii)               Em9   Gmaj7/A  Gsus2/A                     G(x)
eb|-----8---------------------X-------X--------X--------|            |---X---|                     
Bb|-----8---------------------7-------7--------10-------|  2nd time  |---12--| 
Gb|-----0---------------------0-------0--------0--------|    end     |---0---|
Db|-----0---------------------0-------0--------0--------|   with:    |---0---|  
Ab|-----7---------------------7-------0--------0--------| (Outtro)   |---10--|
Eb|-----8---------------------X-------X--------X--------|            |---X---|


  Bridge: 
   But its warmer where you're waiting, it feels more like July,

        G5        Em7
eb|-----X----------X----------|
Bb|-----3----------5----------|
Gb|-----0----------0----------|
Db|-----5----------0----------|
Ab|-----5----------7----------|
Eb|-----X----------X----------|


   There's pillows in their cases, and one of those is...

        C5       Dsus4
eb|-----X----------X----------|
Bb|-----8----------10---------|
Gb|-----0----------0----------|
Db|-----10---------12---------|
Ab|-----10---------12---------|
Eb|-----X----------X----------|


   mine. And you wrote the words "I Love You" and sprayed it with perfume.

        G5        Em7
eb|-----X----------X----------|
Bb|-----3----------5----------|
Gb|-----0----------0----------|
Db|-----5----------0----------|
Ab|-----5----------7----------|
Eb|-----X----------X----------|


   It's Better than the fire is, to heat this lonely room.

        C5       Dsus4
eb|-----X----------X----------|
Bb|-----8----------10---------|
Gb|-----0----------0----------|
Db|-----10---------12---------|
Ab|-----10---------12---------|
Eb|-----X----------X----------|


 But its warmer where you're waiting, it feels more like July,

        G5        Em7
eb|-----X----------X----------|
Bb|-----3----------5----------|
Gb|-----0----------0----------|
Db|-----5----------0----------|
Ab|-----5----------7----------|
Eb|-----X----------X----------|


   It feels more like July.

        C5       Dsus4
eb|-----X----------X----------|
Bb|-----8----------10---------|
Gb|-----0----------0----------|
Db|-----10---------12---------|
Ab|-----10---------12---------|
Eb|-----X----------X----------|

==========BACK TO VERSE===========

| /  slide up          ORDER: Verse
| \  slide down               Chorus
| h  hammer-on                Bridge
| p  pull-off                 Verse
| ~  vibrato                  Chorus w/ 2nd ending (outtro)
| +  harmonic
| x  Mute note
===============================================================================
Tap to rate this tab
 
# A B C D E F G H I J K L M N O P Q R S T U V W X Y Z