Song name
# A B C D E F G H I J K L M N O P Q R S T U V W X Y Z

Dashboard Confessional - The Places You Have Come To Fear The Most tab

intro: acoustic
eb------------------------------------------------------2-2-222222-2222-0~->
Bb-0-0-0000-0-0-0000-0-0-0000-0-0-0000-0-0-0000-000000000-0-000033-3333-1~->
Gb-4-4-4444-5-5-5555-5-5-5555-2-2-2222-4-4-4444-555555550-0-000022-2222-2~->
Db-5-5-5555-5-5-5555-7-7-7777-4-4-4444-5-5-5555-555555552-2-222200-0000-2~->
Ab--------------------------------------------------7777----------------3~->
Db------------------------------------------------------------------------->

fill:
eb--------------------->
Bb-0-----0------0------>
Gb--0-0---0-0----0-0--->
Db---4-----4------4---->
Ab-----3------3-----3~->
Db--------------------->

verse 1:
eb----------0-0-0000-2-2-22220000-2222----------0-0-0000-2-2-22220000-2222->
Bb-0-0-0000-0-0-0000-3-3-33330000-3333-0-0-0000-0-0-0000-3-3-33330000-3333->
Gb-4-4-4444-5-5-5555-2-2-22225555-2222-4-4-4444-5-5-5555-2-2-22225555-2222->
Db-5-5-5555-5-5-5555-0-0-00005555-0000-5-5-5555-5-5-5555-0-0-00005555-0000->
Ab----------7-7-7777-0-0-00007777-0000----------7-7-7777-0-0-00007777-0000->
Db-------------------0-0-00007777-0000-------------------0-0-00007777-0000->
buried deep as you can dig inside yourself, and covered with a perfect
shell, such a charming beautiful exterior. laced with brilliant smiles and
shining eyes and perfect posture, but you're barely scraping by, but you're
barely scraping by.

pre-chorus:
eb-0-0-0000-2-2-2222->
Bb-0-0-0000-3-3-3333->
Gb-5-5-5555-2-2-2222->
Db-5-5-5555-0-0-0000->
Ab-7-7-7777-0-0-0000->
Db-7-7-7777-0-0-0000->
well this is one time, this is one time

chorus:
eb-7-7-7777-7-7-7777-------------------3333-2222-0-0-0000-0-0-0000->
Bb-8-8-8888-8-8-8888-8-8-8888-8-8-8888-5555-3333-3-3-3333-3-3-3333->
Gb-7-7-7777-7-7-7777-7-7-7777-7-7-7777-4444-2222-0-0-0000-0-0-0000->
Db-5-5-5555-5-5-5555-4-4-4444-4-4-4444-2222-0000-2-2-2222-2-2-2222->
Ab-5-5-5555-5-5-5555-5-5-5555-5-5-5555-2222-0000-3-3-3333-3-3-3333->
Db-5-5-5555-5-5-5555-4-4-4444-4-4-4444-2222-0000------------------->
that you can't fake it hard enough to please everyone or anyone at all, or
anyone at all.  and the grave that you refuse to leave the refuge that
you've built to flee the places that you've come to fear the most

chorus:
eb-3333-2222-0~---------------->
Bb-5555-3333-3~---------------->
Gb-4444-2222-0~---------------->
Db-2222-0000-2~---------------->
Ab-2222-0000-3~---------------->
Db-2222-0000------------------->
is the place that you have come to fear the most.

verse 1:
eb----------0-0-0000-2-2-22220000-2222----------0-0-0000-2-2-22220000-2222->
Bb-0-0-0000-0-0-0000-3-3-33330000-3333-0-0-0000-0-0-0000-3-3-33330000-3333->
Gb-4-4-4444-5-5-5555-2-2-22225555-2222-4-4-4444-5-5-5555-2-2-22225555-2222->
Db-5-5-5555-5-5-5555-0-0-00005555-0000-5-5-5555-5-5-5555-0-0-00005555-0000->
Ab----------7-7-7777-0-0-00007777-0000----------7-7-7777-0-0-00007777-0000->
Db-------------------0-0-00007777-0000-------------------0-0-00007777-0000->
buried deep as you can dig inside yourself and hidden in the public eye
such a stellar monument to loneliness.  laced with brilliant smiles and
shining eyes and perfect makeup, but you're barely scraping by, but you're
barely scraping by.

---REPEAT PRE-CHORUS
---REPEAT CHORUS
---REPEAT CHORUS

outro-chorus:
eb-3333-2222-0~---------------->
Bb-5555-3333-3~---------------->
Gb-4444-2222-0~---------------->
Db-2222-0000-2~---------------->
Ab-2222-0000-3~---------------->
Db-2222-0000------------------->
is the place that you have come to fear the most.

outro: repeat; it fades out on the cd
eb------------------------------------------------------2-2-222222-2222->
Bb-0-0-0000-0-0-0000-0-0-0000-0-0-0000-0-0-0000-000000000-0-000033-3333->
Gb-4-4-4444-5-5-5555-5-5-5555-2-2-2222-4-4-4444-555555550-0-000022-2222->
Db-5-5-5555-5-5-5555-7-7-7777-4-4-4444-5-5-5555-555555552-2-222200-0000->
Ab--------------------------------------------------7777---------------->
Db---------------------------------------------------------------------->
Tap to rate this tab
 
# A B C D E F G H I J K L M N O P Q R S T U V W X Y Z