Song name
# A B C D E F G H I J K L M N O P Q R S T U V W X Y Z

Dashboard Confessional - Standard Lines tab

Help us improve GuitareTab! Take a short survey!
By: Stumaster18
Tuning: Eb Ab Db Gb Bb eb

Intro 
eb:|---------------------------------| 
Bb:|---------------------------------| 
Gb:|---------------------------------| 
Db:|-----9---6-7-6-------7-----7-6---| 
Ab:|---7---0-------7---4---0-5-----7-| 
Eb:|-0---------------0---------------| 

eb:|--------------------------0-------| 
Bb:|--------------------------------0-| 
Gb:|--------1-2-1---------1h2---1h2---| 
Db:|------2-------2-----2-------------| 
Ab:|----0-------------0---------------| 
Eb:|-/2------------2------------------| 

eb:|---------------------------------| 
Bb:|---------------------0-----------| 
Gb:|---------------------------------| 
Db:|-----9---6/4/6/4-4/2---2-4/6/4/2-| 
Ab:|---7---0-------------------------| 
Eb:|-0-------------------------------| 

eb:|-------0---------0-------| 
Bb:|---------------0---0-----| 
Gb:|-----2-------5-------5---| 
Db:|---4-------7-----------7-| 
Ab:|-4-------7---------------| 
Eb:|-------------------------| 



Verse - 2X: "So which of the bold..." 

eb:|--0--0--0--0--0---0-| 
Bb:|--0--0--0--0--0---0-| 
Gb:|-13-13-13-14-13---6-| 
Db:|--x--x--x--x--x---6-| 
Ab:|-11-11-11-12-11---0-| 
Eb:|--0--0--0--0--0-----| 

eb:|--0--0--0--0--0---0---0---0-| 
Bb:|--0--0--0--0--0---0---0---0-| 
Gb:|-13-13-13-14-13---4---6---2-| 
Db:|--x--x--x--x--x---4---6---2-| 
Ab:|-11-11-11-12-11---0---0---0-| 
Eb:|--0--0--0--0--0-------------| 


Chorus - 2X: "But your taste still.." 

eb:|-0--0--0---0---0---0--0---0--0---0-| 
Bb:|-0--0--0---0---0---0--0---0--0---0-| 
Gb:|-1--2--6--14--13--11--9--11--8---6-| 
Db:|-2--4--6---x---x---x--x---x--x---6-| 
Ab:|-2--4--0--12--11---9--7---9--6---0-| 
Eb:|-0--0------0---0---0--0---0--0-----|

Outro - 1X: Same as intro

eb:|---------------------------------| 
Bb:|---------------------------------| 
Gb:|---------------------------------| 
Db:|-----9---6-7-6-------7-----7-6---| 
Ab:|---7---0-------7---4---0-5-----7-| 
Eb:|-0---------------0---------------| 

eb:|--------------------------0-------| 
Bb:|--------------------------------0-| 
Gb:|--------1-2-1---------1h2---1h2---| 
Db:|------2-------2-----2-------------| 
Ab:|----0-------------0---------------| 
Eb:|-/2------------2------------------| 

eb:|---------------------------------| 
Bb:|---------------------0-----------| 
Gb:|---------------------------------| 
Db:|-----9---6/4/6/4-4/2---2-4/6/4/2-| 
Ab:|---7---0-------------------------| 
Eb:|-0-------------------------------| 

eb:|-------0---------0-------| 
Bb:|---------------0---0-----| 
Gb:|-----2-------5-------5---| 
Db:|---4-------7-----------7-| End on E Chord 
Ab:|-4-------7---------------| 
Eb:|-------------------------|
Related for Standard Lines tab