Song name
# A B C D E F G H I J K L M N O P Q R S T U V W X Y Z

Dashboard Confessional - Saints And Sailors tab

----------------------------------------------------------------------------
		Saints and Sailors - Dashboard Confessional
----------------------------------------------------------------------------
Tabbed by: Bair
Email: bair_morritt@hotmail.com

Tuning: Standard

Verse:
e|---------------------------------------------------|-------------------|
B|---------------------------------------------------|-------------------|
G|---6-6666666--6-6666666----------------------------|-------------------|
D|---6-6666666--6-6666666--8-888--6-666--4-444-------|--6-666------------|
A|---4-4444444--3-3333333--8-888--6-666--4-444---X2--|--6-666------------|
E|-------------------------6-666--4-444--2-222-------|--4-444------------|
"This is where I say I've had enough, and no one should ever feel the way that I feel now"

Verse part 2:
e|------------------------------------------------------------------|
B|------------------------------------------------------------------|
G|---6-6666666--6-6666666--6-6666666--------------------------------|
D|---6-6666666--6-6666666--6-6666666--4-4444444--8-8888--6-6666-----|
A|---4-4444444--3-3333333--4-4444444--4-4444444--8-8888--6-6666-----|
E|------------------------------------2-2222222--6-6666--4-4444-----|
"Waiting here with hopes the phone will ring, and I'm thinking awful
things...."

e|---------------------------------------------------|-----------------|
B|---------------------------------------------------|-----------------|
G|---6-6666666--6-6666666----------------------------|-----------------|
D|---6-6666666--6-6666666--8-888--6-666--4-444-------|--6-666----------|
A|---4-4444444--3-3333333--8-888--6-666--4-444---X3--|--6-666----------|
E|-------------------------6-666--4-444--2-222-------|--4-444----------|
" Wandering this house, like I've never wanted out and this is about as social as I get now."

Bridge:
e|--------------------------------------------------------------------------|
B|--------------------------------------------------------------------------|
G|------------66666666------------------------------------------------------|
D|--88888888--66666666--4444--6666--4444--6666------------------------------|
A|--88888888--44444444--4444--6666--4444--6666------------------------------|
E|--66666666------------2222--4444--2222--4444------------------------------|
"So don't be a liar, don't say that "everything's working" when everything's broken."

e|-------------------------------------------------------------------|
B|-------------------------------------------------------------------|
G|-----------------------66666666------------------------------------|
D|--88888888--666666666--66666666--44444444--------------------------|
A|--88888888--666666666--44444444--44444444--------------------------|
E|--66666666--444444444------------22222222--------------------------|
"But I'm not laughing and you're not leaving, and who do I think I am kidding"

e|------------------------------------------|
B|------------------------------------------|
G|------------------------------------------|
D|--88888888--66666666--44444444------------|
A|--88888888--66666666--44444444------------|
E|--66666666--44444444--22222222------------|
"When I'm the only one locked in this cell?"

e|--------------------------------------------------------------------------|
B|--------------------------------------------------------------------------|
G|--------------66666666----------------------------------------------------|
D|--8888888866--66666666--8888--6666--4444----------------------------------|
A|--8888888866--44444444--8888--6666--4444----------------------------------|
E|--6666666666------------6666--4444--2222----------------------------------|
"And you smile like a saint but you curse like a sailor and your eyes say the joke's on me"

Outro:
e|-----------------------------|
B|-----------------------------|
G|--------------6666-----------|
D|----8888-6666-6666--let ring-|
A|----8888-6666-4444-----------|
E|----6666-4444----------------|

This is basically the easiest way to play this song in standard tuning.
The rhythme isn't correct and you play the verse off and on but I like writing small 
with as little repetition as possible...you can figure out the order easily by listening to 
song.

| /  slide up
| \  slide down
| h  hammer-on
| p  pull-off
| ~  vibrato
| +  harmonic
| x  Mute note
=============================================================================
Tap to rate this tab
# A B C D E F G H I J K L M N O P Q R S T U V W X Y Z