Guitaretab - guitar tabs
Song name
# A B C D E F G H I J K L M N O P Q R S T U V W X Y Z

Dashboard Confessional - The Sharp Hint Of New Tears tab

Artist   : Dashboard Confessional
Title    : The Sharp Hint of New Tears
Album    : Swiss Army Romance

Tabbed by: dustin7up
Tuning   : {C#,G#,C#,F#,G#,C#} / {Db,Ab,Db,Gb,Ab,Db}
Length   : 03:02



Verse 1: {00:00 - 00:45}
Db|---0-0-0-0-0-------0-0-0-0--0-0-0-0--0-0-0-0-0-----0-0-0-0---0-0-0-0--0-0-0-0-0---|
Ab|---5-5-5-5-5-------5-5-5-5--5-5-5-5--4-4-4-4-4-----4-4-4-4---5-5-5-5--0-0-0-0-0---|
Gb|---2-2-2-2-2-------2-2-2-2--2-2-2-2--2-2-2-2-2-----2-2-2-2---x-x-x-x--0-0-0-0-0---|
Db|---4-4-4-4-4-------4-4-4-4--0-0-0-0--2-2-2-2-2-----2-2-2-2---4-4-4-4--7-7-7-7-7---|
Ab|---0-0-0-0-0-------0-0-0-0--0-0-0-0--0-0-0-0-0-----0-0-0-0---0-0-0-0--5-5-5-5-5---|
Db|--------------------------------0-0-----------------------------------5-5-5-5-5---|
               On the way      home,	         this car hears my    confessions.

Db|---0-0-0-0-0-0-0-0----0-0-0-0-0-0--0-0--0-0-0-0-0-0-0-0---|
Ab|---0-0-0-0-0-0-0-0----0-0-0-0-0-0--0-0--0-0-0-0-0-0-0-0---|
Gb|---0-0-0-0-0-0-0-0----0-0-0-0-0-0--0-0--0-0-0-0-0-0-0-0---|
Db|---7-7-7-7-7-7-7-7----4-4-4-4-4-4--x-x--2-2-2-2-2-2-2-2---|
Ab|---5-5-5-5-5-5-5-5----4-4-4-4-4-4--4-4--2-2-2-2-2-2-2-2---|
Db|---5-5-5-5-5-5-5-5----4-4-4-4-4-4--0-0--2-2-2-2-2-2-2-2---|
    I think tonight I'll take         the  long way.

Db|---0-0-0-0-0--------0-0-0-0--0-0-0-0--0-0-0-0-0----0-0-0-0---0-0-0-0--0-0-0-0-0---|
Ab|---5-5-5-5-5--------5-5-5-5--5-5-5-5--4-4-4-4-4----4-4-4-4---5-5-5-5--0-0-0-0-0---|
Gb|---2-2-2-2-2--------2-2-2-2--2-2-2-2--2-2-2-2-2----2-2-2-2---x-x-x-x--0-0-0-0-0---|
Db|---4-4-4-4-4--------4-4-4-4--0-0-0-0--2-2-2-2-2----2-2-2-2---4-4-4-4--7-7-7-7-7---|
Ab|---0-0-0-0-0--------0-0-0-0--0-0-0-0--0-0-0-0-0----0-0-0-0---0-0-0-0--5-5-5-5-5---|
Db|---------------------------------0-0----------------------------------5-5-5-5-5---|
               In this wea   -  ther.		  The wind   outside is  biting.

Db|----0-0-0-0-0-0-0-0---0-0-0-0-0-0--0-0--0-0-0-0-0-0-0-0---|
Ab|----0-0-0-0-0-0-0-0---0-0-0-0-0-0--0-0--0-0-0-0-0-0-0-0---|
Gb|----0-0-0-0-0-0-0-0---0-0-0-0-0-0--0-0--0-0-0-0-0-0-0-0---|
Db|----7-7-7-7-7-7-7-7---4-4-4-4-4-4--x-x--2-2-2-2-2-2-2-2---|
Ab|----5-5-5-5-5-5-5-5---4-4-4-4-4-4--4-4--2-2-2-2-2-2-2-2---|
Db|----5-5-5-5-5-5-5-5---4-4-4-4-4-4--0-0--2-2-2-2-2-2-2-2---|
It has left me feeling   tired        and  exposed.

Db|---0-0-0-0-0------------0-0-0-0---0-0-0-0--0-0-0-0-0---0-0-0-0-----0-0-0-0--0-0-0-0-0---|
Ab|---5-5-5-5-5------------5-5-5-5---5-5-5-5--4-4-4-4-4---4-4-4-4-----5-5-5-5--0-0-0-0-0---|
Gb|---2-2-2-2-2------------2-2-2-2---2-2-2-2--2-2-2-2-2---2-2-2-2-----x-x-x-x--0-0-0-0-0---|
Db|---4-4-4-4-4------------4-4-4-4---0-0-0-0--2-2-2-2-2---2-2-2-2-----4-4-4-4--7-7-7-7-7---|
Ab|---0-0-0-0-0------------0-0-0-0---0-0-0-0--0-0-0-0-0---0-0-0-0-----0-0-0-0--5-5-5-5-5---|
Db|--------------------------------------0-0-----------------------------------5-5-5-5-5---|
               You've been asking    me to    bleed.   It seems these kinds of questions,

Db|----0-0-0-0-0-0-0-0-----0-0-0-0-0-0--0-0--0-0-0-0-0-0-0-0---|
Ab|----0-0-0-0-0-0-0-0-----0-0-0-0-0-0--0-0--0-0-0-0-0-0-0-0---|
Gb|----0-0-0-0-0-0-0-0-----0-0-0-0-0-0--0-0--0-0-0-0-0-0-0-0---|
Db|----7-7-7-7-7-7-7-7-----4-4-4-4-4-4--x-x--2-2-2-2-2-2-2-2---|
Ab|----5-5-5-5-5-5-5-5-----4-4-4-4-4-4--4-4--2-2-2-2-2-2-2-2---|
Db|----5-5-5-5-5-5-5-5-----4-4-4-4-4-4--0-0--2-2-2-2-2-2-2-2---|
             They come too eas    -     y    to you,

Db|---0-0-0-0-0-----0-0-0-0---0-0-0-0-----0-0-0-0-0----0-0-0-0----0-0-0-0--0-0-0-0-0---|
Ab|---5-5-5-5-5-----5-5-5-5---5-5-5-5-----4-4-4-4-4----4-4-4-4----5-5-5-5--0-0-0-0-0---|
Gb|---2-2-2-2-2-----2-2-2-2---2-2-2-2-----2-2-2-2-2----2-2-2-2----x-x-x-x--0-0-0-0-0---|
Db|---4-4-4-4-4-----4-4-4-4---0-0-0-0-----2-2-2-2-2----2-2-2-2----4-4-4-4--7-7-7-7-7---|
Ab|---0-0-0-0-0-----0-0-0-0---0-0-0-0-----0-0-0-0-0----0-0-0-0----0-0-0-0--5-5-5-5-5---|
Db|-------------------------------0-0--------------------------------------5-5-5-5-5---|
      Now.     Your lack of   shame comes naturally. I should not be     suprised.

Db|----0-0-0-0-0-0-0-0-----0-0-0-0-0-0--0-0--0-0-0-0-0-0-0-0---|
Ab|----0-0-0-0-0-0-0-0-----0-0-0-0-0-0--0-0--0-0-0-0-0-0-0-0---|
Gb|----0-0-0-0-0-0-0-0-----0-0-0-0-0-0--0-0--0-0-0-0-0-0-0-0---|
Db|----7-7-7-7-7-7-7-7-----4-4-4-4-4-4--x-x--2-2-2-2-2-2-2-2---|
Ab|----5-5-5-5-5-5-5-5-----4-4-4-4-4-4--4-4--2-2-2-2-2-2-2-2---|
Db|----5-5-5-5-5-5-5-5-----4-4-4-4-4-4--0-0--2-2-2-2-2-2-2-2---|
     I should have seen it sooner.



Chorus: {00:46 - 01:07}
Db|---0---0-0-0-0--0-0--0---0-0-0-0-0-0--0---0-0-0-0--0-0--0-0-0-0----0-0-0-0---|
Ab|---0---0-0-0-0--0-0--0---0-0-0-0-0-0--0---0-0-0-0--0-0--0-0-0-0----0-0-0-0---|
Gb|---2---2-2-2-2--7-7--6---6-6-6-6-6-6--4---4-4-4-4--7-7--6-6-6-6----4-4-4-4---|
Db|---0---0-0-0-0--5-5--4---4-4-4-4-4-4--4---4-4-4-4--5-5--4-4-4-4----2-2-2-2---|
Ab|---0---0-0-0-0--0-0--0---0-0-0-0-0-0--2---2-2-2-2--0-0--0-0-0-0----0-0-0-0---|
Db|-----------------------------------------------------------------------------|
                   Expect me to         apologize     for things that you've done,

Db|---0---0-0-0-0--0-0--0---0-0-0-0-0-0--0---0-0-0-0--0-0--0-0-0-0--0-0-0-0---|
Ab|---0---0-0-0-0--0-0--0---0-0-0-0-0-0--0---0-0-0-0--0-0--0-0-0-0--0-0-0-0---|
Gb|---2---2-2-2-2--7-7--6---6-6-6-6-6-6--4---4-4-4-4--7-7--6-6-6-6--4-4-4-4---|
Db|---0---0-0-0-0--5-5--4---4-4-4-4-4-4--4---4-4-4-4--5-5--4-4-4-4--2-2-2-2---|
Ab|---0---0-0-0-0--0-0--0---0-0-0-0-0-0--2---2-2-2-2--0-0--0-0-0-0--0-0-0-0---|
Db|---------------------------------------------------------------------------|
      Wrong.       While you're inciting others.

Db|---0---0-0-0-0--0-0--0---0-0-0-0-0-0--0---0-0-0-0--0-0---0-0-0-0---0-0-0-0---|
Ab|---0---0-0-0-0--0-0--0---0-0-0-0-0-0--0---0-0-0-0--0-0---0-0-0-0---0-0-0-0---|
Gb|---2---2-2-2-2--7-7--6---6-6-6-6-6-6--4---4-4-4-4--7-7---6-6-6-6---4-4-4-4---|
Db|---0---0-0-0-0--5-5--4---4-4-4-4-4-4--4---4-4-4-4--5-5---4-4-4-4---2-2-2-2---|
Ab|---0---0-0-0-0--0-0--0---0-0-0-0-0-0--2---2-2-2-2--0-0---0-0-0-0---0-0-0-0---|
Db|-----------------------------------------------------------------------------|
		   You're owning up to   nothing,     and I wish that I was

Db|---0---0-0-0-0--0-0--0---0-0-0-0-0-0----0---0-0-0-0--0-0---0-0-0-0---0-0-0-0---|
Ab|---0---0-0-0-0--0-0--0---0-0-0-0-0-0----0---0-0-0-0--0-0---0-0-0-0---0-0-0-0---|
Gb|---2---2-2-2-2--7-7--6---6-6-6-6-6-6----4---4-4-4-4--7-7---6-6-6-6---4-4-4-4---|
Db|---0---0-0-0-0--5-5--4---4-4-4-4-4-4----4---4-4-4-4--5-5---4-4-4-4---2-2-2-2---|
Ab|---0---0-0-0-0--0-0--0---0-0-0-0-0-0----2---2-2-2-2--0-0---0-0-0-0---0-0-0-0---|
Db|-------------------------------------------------------------------------------|
      Gone,        'cause you're not going anywhere.


[ Tab from: http://www.guitaretab.com/d/dashboard-confessional/32016.html ]
Verse 2: {01:08 - 01:54}
Db|---0-0-0-0-0---------0-0-0-0--0-0-0-0--0-0-0-0-0---0-0-0-0---0-0-0-0--0-0-0-0-0---|
Ab|---5-5-5-5-5---------5-5-5-5--5-5-5-5--4-4-4-4-4---4-4-4-4---5-5-5-5--0-0-0-0-0---|
Gb|---2-2-2-2-2---------2-2-2-2--2-2-2-2--2-2-2-2-2---2-2-2-2---x-x-x-x--0-0-0-0-0---|
Db|---4-4-4-4-4---------4-4-4-4--0-0-0-0--2-2-2-2-2---2-2-2-2---4-4-4-4--7-7-7-7-7---|
Ab|---0-0-0-0-0---------0-0-0-0--0-0-0-0--0-0-0-0-0---0-0-0-0---0-0-0-0--5-5-5-5-5---|
Db|----------------------------------0-0---------------------------------5-5-5-5-5---|
               And this damp     air,		   is fighting  my     defroster.

Db|---0-0-0-0-0-0-0-0----0-0-0-0-0-0--0-0--0-0-0-0-0-0-0-0---|
Ab|---0-0-0-0-0-0-0-0----0-0-0-0-0-0--0-0--0-0-0-0-0-0-0-0---|
Gb|---0-0-0-0-0-0-0-0----0-0-0-0-0-0--0-0--0-0-0-0-0-0-0-0---|
Db|---7-7-7-7-7-7-7-7----4-4-4-4-4-4--x-x--2-2-2-2-2-2-2-2---|
Ab|---5-5-5-5-5-5-5-5----4-4-4-4-4-4--4-4--2-2-2-2-2-2-2-2---|
Db|---5-5-5-5-5-5-5-5----4-4-4-4-4-4--0-0--2-2-2-2-2-2-2-2---|
   My sighs they ring victorious      and  fog this tinted,

Db|---0-0-0-0-0----------0-0-0-0--0-0-0-0--0-0-0-0-0----0-0-0-0---0-0-0-0--0-0-0-0-0---|
Ab|---5-5-5-5-5----------5-5-5-5--5-5-5-5--4-4-4-4-4----4-4-4-4---5-5-5-5--0-0-0-0-0---|
Gb|---2-2-2-2-2----------2-2-2-2--2-2-2-2--2-2-2-2-2----2-2-2-2---x-x-x-x--0-0-0-0-0---|
Db|---4-4-4-4-4----------4-4-4-4--0-0-0-0--2-2-2-2-2----2-2-2-2---4-4-4-4--7-7-7-7-7---|
Ab|---0-0-0-0-0----------0-0-0-0--0-0-0-0--0-0-0-0-0----0-0-0-0---0-0-0-0--5-5-5-5-5---|
Db|-----------------------------------0-0----------------------------------5-5-5-5-5---|
      Glass.    And it's clou  -  ded 		    and so is     my      head.

Db|---0-0-0-0-0-0-0-0---0-0-0-0-0-0--0-0--0-0-0-0-0-0-0-0---|
Ab|---0-0-0-0-0-0-0-0---0-0-0-0-0-0--0-0--0-0-0-0-0-0-0-0---|
Gb|---0-0-0-0-0-0-0-0---0-0-0-0-0-0--0-0--0-0-0-0-0-0-0-0---|
Db|---7-7-7-7-7-7-7-7---4-4-4-4-4-4--x-x--2-2-2-2-2-2-2-2---|
Ab|---5-5-5-5-5-5-5-5---4-4-4-4-4-4--4-4--2-2-2-2-2-2-2-2---|
Db|---5-5-5-5-5-5-5-5---4-4-4-4-4-4--0-0--2-2-2-2-2-2-2-2---|
  The hint of these new tears are sharp.  I try to choke them,

Db|---0-0-0-0-0---------0-0-0-0--0-0-0-0--0-0-0-0-0----0-0-0-0---0-0-0-0--0-0-0-0-0---|
Ab|---5-5-5-5-5---------5-5-5-5--5-5-5-5--4-4-4-4-4----4-4-4-4---5-5-5-5--0-0-0-0-0---|
Gb|---2-2-2-2-2---------2-2-2-2--2-2-2-2--2-2-2-2-2----2-2-2-2---x-x-x-x--0-0-0-0-0---|
Db|---4-4-4-4-4---------4-4-4-4--0-0-0-0--2-2-2-2-2----2-2-2-2---4-4-4-4--7-7-7-7-7---|
Ab|---0-0-0-0-0---------0-0-0-0--0-0-0-0--0-0-0-0-0----0-0-0-0---0-0-0-0--5-5-5-5-5---|
Db|----------------------------------0-0----------------------------------5-5-5-5-5---|
      Back.    But it's use  -   less.		   I'm use   -   less    against them.

Db|---0-0-0-0-0-0-0-0---0-0-0-0-0-0--0-0--0-0-0-0-0-0-0-0---|
Ab|---0-0-0-0-0-0-0-0---0-0-0-0-0-0--0-0--0-0-0-0-0-0-0-0---|
Gb|---0-0-0-0-0-0-0-0---0-0-0-0-0-0--0-0--0-0-0-0-0-0-0-0---|
Db|---7-7-7-7-7-7-7-7---4-4-4-4-4-4--x-x--2-2-2-2-2-2-2-2---|
Ab|---5-5-5-5-5-5-5-5---4-4-4-4-4-4--4-4--2-2-2-2-2-2-2-2---|
Db|---5-5-5-5-5-5-5-5---4-4-4-4-4-4--0-0--2-2-2-2-2-2-2-2---|
		They're beating me   with ease.

Db|---0-0-0-0-0-------0-0-0-0--0-0-0-0--0-0-0-0-0-----0-0-0-0---0-0-0-0--0-0-0-0-0---|
Ab|---5-5-5-5-5-------5-5-5-5--5-5-5-5--4-4-4-4-4-----4-4-4-4---5-5-5-5--0-0-0-0-0---|
Gb|---2-2-2-2-2-------2-2-2-2--2-2-2-2--2-2-2-2-2-----2-2-2-2---x-x-x-x--0-0-0-0-0---|
Db|---4-4-4-4-4-------4-4-4-4--0-0-0-0--2-2-2-2-2-----2-2-2-2---4-4-4-4--7-7-7-7-7---|
Ab|---0-0-0-0-0-------0-0-0-0--0-0-0-0--0-0-0-0-0-----0-0-0-0---0-0-0-0--5-5-5-5-5---|
Db|--------------------------------0-0-----------------------------------5-5-5-5-5---|
	       On the way      home,		 this car hears my    confessions.

Db|---0-0-0-0-0-0-0-0----0-0-0-0-0-0--0-0--0-0-0-0-0-0-0-0---|
Ab|---0-0-0-0-0-0-0-0----0-0-0-0-0-0--0-0--0-0-0-0-0-0-0-0---|
Gb|---0-0-0-0-0-0-0-0----0-0-0-0-0-0--0-0--0-0-0-0-0-0-0-0---|
Db|---7-7-7-7-7-7-7-7----4-4-4-4-4-4--x-x--2-2-2-2-2-2-2-2---|
Ab|---5-5-5-5-5-5-5-5----4-4-4-4-4-4--4-4--2-2-2-2-2-2-2-2---|
Db|---5-5-5-5-5-5-5-5----4-4-4-4-4-4--0-0--2-2-2-2-2-2-2-2---|
    I think tonight I'll take 	      the  long way.



Bridge: {01:55 - 02:17}
Db|---0---0-0-0-0--0---0-0-0-0--0---0-0--0---0-0-0-0--0---0-0-0-0--0---0-0--0--0----|
Ab|---0---0-0-0-0--0---0-0-0-0--0---0-0--0---0-0-0-0--0---0-0-0-0--0---0-0--0--0----|
Gb|---0---0-0-0-0--6---6-6-6-6--7---7-7--x---x-x-x-x--6---6-6-6-6--7---7-7--11p9----|
Db|---5---5-5-5-5--5---5-5-5-5--5---5-5--0---0-0-0-0--0---0-0-0-0--0---0-0--12\11---|
Ab|---5---5-5-5-5--5---5-5-5-5--5---5-5--0---0-0-0-0--0---0-0-0-0--0---0-0--0--0----|
Db|---5---5-5-5-5--5---5-5-5-5--5---5-5--0---0-0-0-0--0---0-0-0-0--0---0-0--0--0----|

Db|---0----0--0----0--0----0--0----0--0---0---0-0---0-0---0-0---0-0---0-0---|
Ab|---0----0--0----0--0----0--0----0--0---0---0-0---0-0---0-0---0-0---0-0---|
Gb|---9----9--9----9--9----9--11---11-11--x---x-x---x-x---x-x---x-x---x-x---|
Db|---11---11-11---11-11---11-12---12-12--7---7-7---7-7---7-7---7-7---7-7---|
Ab|---0----0--0----0--0----0--0----0--0---7---7-7---7-7---7-7---7-7---7-7---|
Db|---0----0--0----0--0----0--0----0--0---7---7-7---7-7---7-7---7-7---7-7---|

Db|---0---0-0-0-0--0---0-0-0-0--0---0-0--0---0-0-0-0--0---0-0-0-0--0---0-0--0--0----|
Ab|---0---0-0-0-0--0---0-0-0-0--0---0-0--0---0-0-0-0--0---0-0-0-0--0---0-0--0--0----|
Gb|---0---0-0-0-0--6---6-6-6-6--7---7-7--x---x-x-x-x--6---6-6-6-6--7---7-7--11p9----|
Db|---5---5-5-5-5--5---5-5-5-5--5---5-5--0---0-0-0-0--0---0-0-0-0--0---0-0--12\11---|
Ab|---5---5-5-5-5--5---5-5-5-5--5---5-5--0---0-0-0-0--0---0-0-0-0--0---0-0--0--0----|
Db|---5---5-5-5-5--5---5-5-5-5--5---5-5--0---0-0-0-0--0---0-0-0-0--0---0-0--0--0----|

Db|---0----0--0--0----0----0--0----0--0---0---0-0---0-0---0-0---0-0---0-0---|
Ab|---0----0--0--0----0----0--0----0--0---0---0-0---0-0---0-0---0-0---0-0---|
Gb|---9----9--11-11---11---11-11---11-11--x---x-x---x-x---x-x---x-x---x-x---|
Db|---11---11-12-12---12---12-12---12-12--7---7-7---7-7---7-7---7-7---7-7---|
Ab|---0----0--0--0----0----0--0----0--0---7---7-7---7-7---7-7---7-7---7-7---|
Db|---0----0--0--0----0----0--0----0--0---7---7-7---7-7---7-7---7-7---7-7---|



Chorus: {02:18 - 02:40}
Db|-------------------------------------------|
Ab|-------------------------------------------|
Gb|-------------------------------------------|
Db|----------^-REPEAT-CHORUS-ABOVE-^----------|
Ab|-------------------------------------------|
Db|-------------------------------------------|



Outro: {02:41 - 03:02}
Db|---0-0-0-0-0-------0-0-0-0--0-0-0-0--0-0-0-0-0-----0-0-0-0---0-0-0-0--0-0-0-0-0---|
Ab|---5-5-5-5-5-------5-5-5-5--5-5-5-5--4-4-4-4-4-----4-4-4-4---5-5-5-5--0-0-0-0-0---|
Gb|---2-2-2-2-2-------2-2-2-2--2-2-2-2--2-2-2-2-2-----2-2-2-2---x-x-x-x--0-0-0-0-0---|
Db|---4-4-4-4-4-------4-4-4-4--0-0-0-0--2-2-2-2-2-----2-2-2-2---4-4-4-4--7-7-7-7-7---|
Ab|---0-0-0-0-0-------0-0-0-0--0-0-0-0--0-0-0-0-0-----0-0-0-0---0-0-0-0--5-5-5-5-5---|
Db|--------------------------------0-0-----------------------------------5-5-5-5-5---|
               On the way      home,	         this car hears my    confessions.

Db|---0-0-0-0-0-0-0-0----0-0-0-0-0-0--0-0--0-0-0-0-0-0-0--0~~~---|
Ab|---0-0-0-0-0-0-0-0----0-0-0-0-0-0--0-0--0-0-0-0-0-0-0--0~~~---|
Gb|---0-0-0-0-0-0-0-0----0-0-0-0-0-0--0-0--0-0-0-0-0-0-0--0~~~---|
Db|---7-7-7-7-7-7-7-7----4-4-4-4-4-4--x-x--2-2-2-2-2-2-2--2~~~---|
Ab|---5-5-5-5-5-5-5-5----4-4-4-4-4-4--4-4--2-2-2-2-2-2-2--2~~~---|
Db|---5-5-5-5-5-5-5-5----4-4-4-4-4-4--0-0--2-2-2-2-2-2-2--2~~~---|
    I think tonight I'll take         the  long way.


Related for The Sharp Hint Of New Tears tab
Advertisement will be closed in 10 seconds