Song name
# A B C D E F G H I J K L M N O P Q R S T U V W X Y Z

Dashboard Confessional - Turpentine Chaser tab

Dashboard Confessional - Turpentine Chaser

The tab is only up until the bridge, sorry.
Below is the verse, and the chorus.

In the verse i find it easier to keep third finger on string G all the time (slides up 
down, you dont have to take it off)

Verse:
1. This paint has been tasting of lead...
   1        2          1        2         1        2         1        2
D--0-----0---0------|--0------0------|--0--0--0--0--0--0|--0--0--0--0--0--0-|
A--0-----0---0------|--0------0------|--0--0--0--0--0--0|--0--0--0--0--0--0-|
G--2----11--14------|-11------9-(4x's)--x--x--x--x--x--x|--x--x--x--x--x--x-|
D--0-----0---0------|--9------7------|--0--0--0--0--0--0|--0--0--0--0--0--0-|
A--0-----9--12------|--9------7------|--0--5--5--0--5--5|--0--5--5--0--5--5-|
D--0-----0---0------|--9------7------|--0--5--4--0--5--4|--0--5--4--0--5--4-|

Chorus:
1. Well sooner or later this cold, it's gonna break...
   1        2          1        2         1        2         1        2
D--0---------0------|--0------0------|--0--------5------|--5--------7------|
A--0---------0------|--0------0------|--0--------5------|--5--------7------|
G--7---------5------|--4------2-(2x's)--7--------0------|--0--------0------|
D--7---------5------|--4------2------|--7--------0------|--0--------0------|
A--5---------3------|--2------0------|--5--------2------|--3--------0------|
D--0---------0------|--0------0------|--0--------0------|--0--------0------|

   1        2          1        2
D--0---------0------|--0------0------|
A--0---------0------|--0------0------|
G--7---------5------|--4------2------|
D--7---------5------|--4------2------|
A--5---------3------|--2------0------|
D--0---------0------|--0------0------|

for the strumming listen to the song
Tap to rate this tab
 
# A B C D E F G H I J K L M N O P Q R S T U V W X Y Z