Song name
# A B C D E F G H I J K L M N O P Q R S T U V W X Y Z

Dashboard Confessional - For You To Notice tab

-------------------------------------------------------------------------------
			     FOR YOU TO NOTICE - Dashboard Confessional
-------------------------------------------------------------------------------
Tabbed by: Tim aka copious
Email: campi_86@hotmail.com

Tuning:Eb Ab Db Eb Bb Eb

_~Intro & Verse part1~_

Guitar 1:

      
Eb|--------0--------0--------0--------0--------0--------0--------0--------0---||
Bb|--------0--------0--------0--------0--------0--------0--------0--------0---||
Eb|--------0--------0--------0--------0--------0--------0--------0--------0--:||
Db|-----2--------2--------4--------6--------2--------2--------4--------4-----:||
Ab|--------------------------------------4--------4--------2--------2---------||
Eb|--0--------0--------0--------0---------------------------------------------||


Guitar 2:
                                                 

Eb|-----------------12--------------------------14--|-----------------||
Bb|----------9--12--------------------------12------|--7p5--7/9-------||
Eb|-------------------------------------14---------:|------------(0)--||
Db|------------------------------------------------:|-----------------||
Ab|-------------------------------------------------|-----------------||
Eb|-------------------------------------------------|-----------------||

"i'm starting to fashion an idea in my head
where i would impress you
with every single word I said"


_~Verse part2~_

Guitar 1:


As part1!


Guitar 2:

                                           {      3x      }               
Eb|--12--12--------------------------------|-----------0--|------------||
Bb|----------12--12--14--14--9--9--10--10--|--7-----7-----|--7p5--7/9--||
Eb|----------------------------------------|-----0--------|------------||
Db|----------------------------------------|--------------|------------||
Ab|----------------------------------------|--------------|------------||
Eb|----------------------------------------|--------------|------------||


                                           {       3x        }               
Eb|--12--12--------------------------------|--------------0--|------------||
Bb|----------12--12--14--14--9--9--10--10--|--12------12-----|--7p5--7/9--||
Eb|----------------------------------------|------0----------|------------||
Db|----------------------------------------|-----------------|------------||
Ab|----------------------------------------|-----------------|------------||
Eb|----------------------------------------|-----------------|------------||

"it'd come out insightful 
or brave or smooth or charming
and you'd wanna call me"


_~pre-Chorus~_

Guitar 1:


Eb|--------------------------------0--------0---------0--------0--------0--------0---||
Bb|--------------------------------0--------0---------0--------0--------0--------0---||
Eb|--------------------------------0--------0---------0--------0--------0--------0--:||
Db|-----2-----4-----6-----7-----9--------9--------11--------7--------9--------9-----:||
Ab|----------------------------------------------------------------------------------||
Eb|--0-----0-----0-----0-----0--------0--------0---------0--------0--------0---------||


  {              Interlude                 }
Eb|------<12>-----<12>----------0-------0--||
Bb|-----------------------------0-------0--||
Eb|-------------------------------------0--||
Db|--11--------9--------7--6h7----------2--||
Ab|--------------------------------7/9--2--||
Eb|-------------------------------------0--||


Guitar 2:


Eb|----------------4--5--7--9--11--12--12--12--12--12--12--12--|--
Bb|----2--4--5--7----------------------------------------------|--
Eb|------------------------------------------------------------|--
Db|------------------------------------------------------------|--
Ab|------------------------------------------------------------|--
Eb|------------------------------------------------------------|--


Eb|----------------4--5--7--9--11--12--12--12--12--12--12--|--9--7--5--4h5-7---------||
Bb|----2--4--5--7------------------------------------------|------------------5-4h5--||
Eb|--------------------------------------------------------|-------------------------||
Db|--------------------------------------------------------|--7--6--4----------------||
Ab|--------------------------------------------------------|-------------------------||
Eb|--------------------------------------------------------|-------------------------||


  {           Interlude             }
Eb|--9--7--5--4h5--7----------<12>--|--|-----
Bb|-------------------5--4h5--<12>--|--|-----
Eb|---------------------------<12>--|--|-----
Db|--7--6--4------------------------|--|-----
Ab|---------------------------------|--|-----
Eb|---------------------------------|--|-----


"and i...
would be there every time
you need me
i'd be there every time"


_~Chorus~_

Guitar 1:


Eb|--0----0-0----0----0-0----0--0---||
Bb|--0----0-0----0----0-0----0--0---||
Eb|--0----0-0----0----0-0----0--0--:||
Db|--2----4/6----2----4/6----4--4--:||
Ab|--2----4/6----4----4/6----6--2---||
Eb|--0----0-0----0----0-0----0--x---||


Guitar 2:

Part1:


Eb|---------12-------------14-------------16----14-------12---||
Bb|--9--12----------9--12----------9--12--------------12------||
Eb|----------------------------------------------------------:||
Db|----------------------------------------------------------:||
Ab|-----------------------------------------------------------||
Eb|-----------------------------------------------------------||


Part2:


 |{   5x   }|{   5x   }|
Eb|------16--|------17--|
Bb|--12------|--12------|
Eb|----------|----------|
Db|----------|----------|
Ab|----------|----------|
Eb|----------|----------|


Part3:


                                                             1.                        2.
Eb|-----12-----14-----12-----16-----12-----14-----12-----14--|------16------16--------||------16------16-----------||
Bb|--9------9------9------9------9------9------9------9------|--12------12------12----||--12------12----------12~--||
Eb|----------------------------------------------------------|-----------------------:||---------------------------||
Db|----------------------------------------------------------|-----------------------:||---------------------------||
Ab|----------------------------------------------------------|------------------------||---------------------------||
Eb|----------------------------------------------------------|------------------------||---------------------------||

"for you to want me
for you need me
for you to notice me"


_~Chorus Part4 (Guitar 2)~_


Eb|-----12-----14-----12-----16-----12-----14-----12-----14------16------16------||
Bb|--9------9------9------9------9------9------9------9------12------12------12--||
Eb|------------------------------------------------------------------------------||
Db|------------------------------------------------------------------------------||
Ab|------------------------------------------------------------------------------||
Eb|------------------------------------------------------------------------------||



----------------------------

Intro
Verse part1
Verse part2
pre-Chorus
Chorus
Intro
Verse part1
Verse part2
pre-Chorus
Chorus
Chorus part4 (Guitar 2)
Interlude


| /  slide up
| \  slide down
| h  hammer-on
| p  pull-off
| ~  vibrato
| <> harmonic
| x  Mute note
===============================================================================
Tap to rate this tab
# A B C D E F G H I J K L M N O P Q R S T U V W X Y Z