Song name
# A B C D E F G H I J K L M N O P Q R S T U V W X Y Z

Dashboard Confessional - So Impossible tab

So Impossible                             Dashboard Confessional 

C#m7/Ab
x 11 11 9 0 0

Badd11
7 9 9 8 0 0
 
C#m7/A
x 0 11 9 0 0
 
Aadd9(type 2)
x 0 7 6 0 0
 
G#5
4 6 6 x x x

 A5
5 7 7 x x x
 
Aadd9
5 7 7 6 0 0
 
F#11
2 4 4 3 0 0
 
Emaj7/Ab
4 6 6 4 0 0
 
C#m7/AII
x 0 6 6 0 0
 
F#7sus4/C#
9 9 11 11 0 0
 
Aadd9/E
0 7 7 6 0 0 



 Intro
  Q=90
  C#m7/G#
 4/4
  Gtr I
   Q   Q   Q   E  S  S    E  E  E  E  E  E  E  S  S
|--0---0---0---0--0--0-|--0--0--0--0--0--0--0--0--0-|
|--0---0---0---0--0--0-|--0--0--0--0--0--0--0--0--0-|
|--9---9---9---9--9--9-|--9--9--9--9--9--9--9--9--9-|
|-11--11--11--11-11-11-|-11-11-11-11-11-11-11-11-11-|
|-11--11--11--11-11-11-|-11-11-11-11-11-11-11-11-11-|
|----------------------|----------------------------|


 Verse
  Badd11                C#m7/A   Aadd9
  E E E E  E  E E S S    E  E  E E E E E S S
|-0-----0-------0-----|--0-------0-----0-----|
|-0-----0-------0-----|--0-------0-----0-----|
|-8-----8-------8-----|--9--9--9-6-6-6-6-6-6-|
|-9-9-9-9--9--9-9-9-9-|-11-11-11-7-7-7-7-7-7-|
|-9-9-9-9--9--9-9-9-9-|--0--0--0-0-0-0-0-0-0-|
|-7-7-7-7--7--7-7-7-7-|----------------------|
|
| Gtr II
| E E E E +E  E E E      E  E  E E E E E E
|-------0-(0)---------|--0--2--4-0-----0-----|
|-0-2-4-------0-2-4---|----------0-2-4---0---|
|---------------------|----------------------|
|---------------------|----------------------|
|---------------------|----------------------|
|---------------------|----------------------|


  Badd11            C#m7/A   Aadd9
  E E E E E E E E    E  E  E E E E E S S
|-0-----0-----0---|--0-------0-----0-----|
|-0-----0-----0---|--0-------0-----0-----|
|-8-----8-----8---|--9--9--9-6-6-6-6-6-6-|
|-9-9-9-9-9-9-9-9-|-11-11-11-7-7-7-7-7-7-|
|-9-9-9-9-9-9-9-9-|--0--0--0-0-0-0-0-0-0-|
|-7-7-7-7-7-7-7-7-|----------------------|
|
| E E E E E E E E    E  E  E E E E E E
|-------0-2-------|----------------------|
|-0-2-4-----0-2-4-|--5--4s=2-0-----------|
|-----------------|------------2-1-------|
|-----------------|----------------4-2---|
|-----------------|----------------------|
|-----------------|----------------------|


  Badd11              C#m7/A   Aadd9
  E E E E E E E S S    E  E  E E  E  E E S S
|-0-----0-----0-----|--0-------0-------0-----|
|-0-----0-----0-----|--0-------0-------0-----|
|-8-----8-----8-----|--9--9--9-6--6--6-6-6-6-|
|-9-9-9-9-9-9-9-9-9-|-11-11-11-7--7--7-7-7-7-|
|-9-9-9-9-9-9-9-9-9-|--0--0--0-0--0--0-0-0-0-|
|-7-7-7-7-7-7-7-7-7-|------------------------|
|
| E E E E E E E E      E  E  E E +E  E E E
|-------0-2---------|--0--2--4-0-(0)---0-----|
|-0-2-4-----0-2-4---|----------------4---4---|
|-------------------|------------------------|
|-------------------|------------------------|
|-------------------|------------------------|
|-------------------|------------------------|


  Badd11            C#m7/A   Aadd9
  E E E E E E E E    E  E  E E E E E S S
|-0-----0-----0---|--0-------0-----0-----|
|-0-----0-----0---|--0-------0-----0-----|
|-8-----8-----8---|--9--9--9-6-6-6-6-6-6-|
|-9-9-9-9-9-9-9-9-|-11-11-11-7-7-7-7-7-7-|
|-9-9-9-9-9-9-9-9-|--0--0--0-0-0-0-0-0-0-|
|-7-7-7-7-7-7-7-7-|----------------------|
|
| E E E E E E E E    E  E  E E E E E E
|-------0-2-------|----------------------|
|-0-2-4-0---0-2-4-|--5--4s=2-0-----------|
|-----------------|------------2-1-------|
|-----------------|----------------4-2---|
|-----------------|----------------------|
|-----------------|----------------------|


  G#5                   A5                                   Aadd9
                                               <
  PM-------------------------------------------------------|
  E  E E E  E E E S S   E  E E E E  E  E  E    E E E E E E E S S
|---------------------|----------------------|-------------------|
|---------------------|----------------------|---------------0-0-|
|---------------------|----------------------|---------------6-6-|
|-6--6-6-6--6-6-6-6-6-|-7--7-7-7-7--7--7--7--|-7-7-7-7-7-7-7-7-7-|
|-6--6-6-6--6-6-6-6-6-|-7--7-7-7-7--7--7--7--|-7-7-7-7-7-7-7-7-7-|
|-4--4-4-4--4-4-4-4-4-|-5--5-5-5-5--5--5--5--|-5-5-5-5-5-5-5-5-5-|
|
|                                                <
| Q.     Q.     Q       Q.     Q   +E  E +E    E E E E E E E S S
|-4------2------0-----|-5------4---(4)S2-(2)S|=0-0-0-0-0-0-0-0-0-|
|---------------------|----------------------|-------------------|
|---------------------|----------------------|-------------------|
|---------------------|----------------------|-------------------|
|---------------------|----------------------|-------------------|
|---------------------|----------------------|-------------------|


 Chorus
  $
  Badd11
   E     E     E     E     E     E     E     S  S
|--0-----------------0-----------------0----------|
|--0-----------------0-----------------0----------|
|--8-----------------8-----------------8----------|
|--9-----9-----9-----9-----9-----9-----9-----9--9-|
|--9-----9-----9-----9-----9-----9-----9-----9--9-|
|--7-----7-----7-----7-----7-----7-----7-----7--7-|
|
|  >
|  S  S  S  S  S  S  S  S  S  S  S  S  S  S  S  S
|----12----12----12----12----12----12----12----12-|
|-12----12----12----12----12----12----12----12----|
|-------------------------------------------------|
|-------------------------------------------------|
|-------------------------------------------------|
|-------------------------------------------------|


  F#11
   E     E     E     E     E     E     E     S  S
|--0-----------------0-----------------0-----------|
|--0-----------------0-----------------0-----------|
|--3-----------------3-----------------3-----------|
|--4-----4-----4-----4-----4-----4-----4-----4--4--|
|--4-----4-----4-----4-----4-----4-----4-----4--4--|
|--2-----2-----2-----2-----2-----2-----2-----2--2--|
|
|        <                 <
|  S  S  S  S  S  S  S  S  S  S  S  S  S  S  S  S
|----11----11----11----11----11----11----11----11--|
|-12----12----12----12----12----12----12----12-----|
|--------------------------------------------------|
|--------------------------------------------------|
|--------------------------------------------------|
|--------------------------------------------------|


  Emaj7/G#                                          C#m7/A
   E     E     E     E     E     E     E     S  S   E  E E E  E E E S S
|--0-----------0-----------0-----------0----------|-0------0------0-----|
|--0-----------0-----------0-----------0----------|-0------0------0-----|
|--4-----------4-----------4-----------4----------|-6--6-6-6--6-6-6-6-6-|
|--6-----6-----6-----6-----6-----6-----6-----6--6-|-6--6-6-6--6-6-6-6-6-|
|--6-----6-----6-----6-----6-----6-----6-----6--6-|-0--0-0-0--0-0-0-0-0-|
|--4-----4-----4-----4-----4-----4-----4-----4--4-|---------------------|
|
|  S  S  S  S  S  S  S  S  S  S  S  S  S  S  S  S   Q.     Q.     Q
|----14----14----14----14----14----14----14----14-|-4------2------0-----|
|-12----12----12----12----12----12----12----12----|---------------------|
|-------------------------------------------------|---------------------|
|-------------------------------------------------|---------------------|
|-------------------------------------------------|---------------------|
|-------------------------------------------------|---------------------|


  Badd11
   E     E     E     E     E     E     E     S  S
|--0-----------0-----------0-----------0----------|
|--0-----------0-----------0-----------0----------|
|--8-----------8-----------8-----------8----------|
|--9-----9-----9-----9-----9-----9-----9-----9--9-|
|--9-----9-----9-----9-----9-----9-----9-----9--9-|
|--7-----7-----7-----7-----7-----7-----7-----7--7-|
|
|                                      <
|  S  S  S  S  S  S  S  S  S  S  S  S  S  S  S  S
|----11----11----11----11----11----11----11----11-|
|-12----12----12----12----12----12----12----12----|
|-------------------------------------------------|
|-------------------------------------------------|
|-------------------------------------------------|
|-------------------------------------------------|


  F#11
   E    E    E    E    E    E    E    S S
|--0--------------0--------------0---------|
|--0--------------0--------------0---------|
|--3----3----3----3--------------3---------|
|--4----4----4----4----4----4----4----4-4--|
|--4----4----4----4----4----4----4----4-4--|
|--2----2----2----2----2----2----2----2-2--|
|
|              <
|  S S  S S  S S  S S  S S  S S  S S  S S
|----9----9----9----9----9----9----9----9--|
|-11---11---11---11---11---11---11---11----|
|------------------------------------------|
|------------------------------------------|
|------------------------------------------|
|------------------------------------------|


  Emaj7/G#                                  C#m7/A
   E    E    E    E    E    E    E    S S   E  E E E  E E E S S
|--0--------------0--------------0--------|-0------0------0-----|
|--0--------------0--------------0--------|-0------0------0-----|
|--4--------------4--------------4--------|-6--6-6-6--6-6-6-6-6-|
|--6----6----6----6----6----6----6----6-6-|-6--6-6-6--6-6-6-6-6-|
|--6----6----6----6----6----6----6----6-6-|-0--0-0-0--0-0-0-0-0-|
|--4----4----4----4----4----4----4----4-4-|---------------------|
|
|  <                        <
|  S S  S S  S S  S S  S S  S S  S S  S S   Q.     Q.     Q
|----9----9----9----9----9----9----9----9-|---------------------|
|-12---12---12---12---12---12---12---12---|-5------4------2-----|
|-----------------------------------------|---------------------|
|-----------------------------------------|---------------------|
|-----------------------------------------|---------------------|
|-----------------------------------------|---------------------|


  Badd11
   E     E     E     E     E     E     E     S  S
|--0-----------0-----------0-----------0----------|
|--0-----------0-----------0-----------0----------|
|--8-----------8-----------8-----------8----------|
|--9-----9-----9-----9-----9-----9-----9-----9--9-|
|--9-----9-----9-----9-----9-----9-----9-----9--9-|
|--7-----7-----7-----7-----7-----7-----7-----7--7-|
|
|  >
|  S  S  S  S  S  S  S  S  S  S  S  S  S  S  S  S
|----12----12----12----12----12----12----12----12-|
|-12----12----12----12----12----12----12----12----|
|-------------------------------------------------|
|-------------------------------------------------|
|-------------------------------------------------|
|-------------------------------------------------|


  F#11
   E     E     E     E     E     E     E     S  S
|--0-----------------0-----------------0-----------|
|--0-----------------0-----------------0-----------|
|--3-----3-----3-----3-----------------3-----------|
|--4-----4-----4-----4-----4-----4-----4-----4--4--|
|--4-----4-----4-----4-----4-----4-----4-----4--4--|
|--2-----2-----2-----2-----2-----2-----2-----2--2--|
|
|        <                 <
|  S  S  S  S  S  S  S  S  S  S  S  S  S  S  S  S
|----11----11----11----11----11----11----11----11--|
|-12----12----12----12----12----12----12----12-----|
|--------------------------------------------------|
|--------------------------------------------------|
|--------------------------------------------------|
|--------------------------------------------------|


  Emaj7/G#                                          C#m7/A
   E     E     E     E     E     E     E     S  S   E  E E E  E E E S S
|--0-----------0-----------0-----------0----------|-0------0------0-----|
|--0-----------0-----------0-----------0----------|-0------0------0-----|
|--4-----------4-----------4-----------4----------|-6--6-6-6--6-6-6-6-6-|
|--6-----6-----6-----6-----6-----6-----6-----6--6-|-6--6-6-6--6-6-6-6-6-|
|--6-----6-----6-----6-----6-----6-----6-----6--6-|-0--0-0-0--0-0-0-0-0-|
|--4-----4-----4-----4-----4-----4-----4-----4--4-|---------------------|
|
|                 <
|  S  S  S  S  S  S  S  S  S  S  S  S  S  S  S  S   Q.     Q.     Q
|----14----14----14----14----14----14----14----14-|-4------2------0-----|
|-12----12----12----12----12----12----12----12----|---------------------|
|-------------------------------------------------|---------------------|
|-------------------------------------------------|---------------------|
|-------------------------------------------------|---------------------|
|-------------------------------------------------|---------------------|


  Badd11
   E     E     E     E     E     E     E     S  S
|--0-----------------0-----------------0----------|
|--0-----------------0-----------------0----------|
|--8-----------------8-----------------8----------|
|--9-----9-----9-----9-----9-----9-----9-----9--9-|
|--9-----9-----9-----9-----9-----9-----9-----9--9-|
|--7-----7-----7-----7-----7-----7-----7-----7--7-|
|
|                                      <
|  S  S  S  S  S  S  S  S  S  S  S  S  S  S  S  S
|----11----11----11----11----11----11----11----11-|
|-12----12----12----12----12----12----12----12----|
|-------------------------------------------------|
|-------------------------------------------------|
|-------------------------------------------------|
|-------------------------------------------------|


  F#11
   E    E    E    E    E    E    E    S S
|--0--------------0--------------0---------|
|--0--------------0--------------0---------|
|--3----3----3----3--------------3---------|
|--4----4----4----4----4----4----4----4-4--|
|--4----4----4----4----4----4----4----4-4--|
|--2----2----2----2----2----2----2----2-2--|
|
|              <
|  S S  S S  S S  S S  S S  S S  S S  S S
|----9----9----9----9----9----9----9----9--|
|-11---11---11---11---11---11---11---11----|
|------------------------------------------|
|------------------------------------------|
|------------------------------------------|
|------------------------------------------|


                                                       To Coda
  Emaj7/G#                                  C#m7/A
   E    E    E    E    E    E    E    S S   E  E E E  E E E S S
|--0---------0---------0---------0--------|-0----0----0---0-----|
|--0---------0---------0---------0--------|-0----0----0---0-----|
|--4---------4---------4---------4--------|-6--6-6-6--6-6-6-6-6-|
|--6----6----6----6----6----6----6----6-6-|-6--6-6-6--6-6-6-6-6-|
|--6----6----6----6----6----6----6----6-6-|-0--0-0-0--0-0-0-0-0-|
|--4----4----4----4----4----4----4----4-4-|---------------------|
|
|  <                        <
|  S S  S S  S S  S S  S S  S S  S S  S S   Q.     Q.     Q
|----9----9----9----9----9----9----9----9-|---------------------|
|-12---12---12---12---12---12---12---12---|-5------4------2-----|
|-----------------------------------------|---------------------|
|-----------------------------------------|---------------------|
|-----------------------------------------|---------------------|
|-----------------------------------------|---------------------|


  C#m7/A                G#m/D#
  E  E E E  E E E S S   E  E E E  E E E S S   E  E E E  E E E S S
|-0----0----0---0-----|-0----0----0---0-----|-0----0----0---0-----|
|-0----0----0---0-----|-0----0----0---0-----|-0----0----0---0-----|
|-6--6-6-6--6-6-6-6-6-|-4--4-4-4--4-4-4-4-4-|-4--4-4-4--4-4-4-4-4-|
|-6--6-6-6--6-6-6-6-6-|-6--6-6-6--6-6-6-6-6-|-6--6-6-6--6-6-6-6-6-|
|-0--0-0-0--0-0-0-0-0-|-6--6-6-6--6-6-6-6-6-|-6--6-6-6--6-6-6-6-6-|
|---------------------|---------------------|---------------------|
|
| Q.     Q.     Q       Q.     Q.     Q       Q.     Q.     Q
|---------------------|---------------------|---------------------|
|-5------4------2-----|-5------4------2-----|-5------4------2-----|
|---------------------|---------------------|---------------------|
|---------------------|---------------------|---------------------|
|---------------------|---------------------|---------------------|
|---------------------|---------------------|---------------------|


 Verse
  Badd11              C#m7/A   Aadd9
  E E E E E E E S S    E  E  E E E E E S S
|-0-----0-----0-----|--0-------0-----0-----|
|-0-----0-----0-----|--0-------0-----0-----|
|-8-----8-----8-----|--9--9--9-6-6-6-6-6-6-|
|-9-9-9-9-9-9-9-9-9-|-11-11-11-7-7-7-7-7-7-|
|-9-9-9-9-9-9-9-9-9-|--0--0--0-0-0-0-0-0-0-|
|-7-7-7-7-7-7-7-7-7-|----------------------|
|
| E E E E E E E E      E  E  E E E E E E
|-------0-2---------|--0--2--4-0-----0-----|
|-0-2-4-----0-2-4---|----------0-2-4---0---|
|-------------------|----------------------|
|-------------------|----------------------|
|-------------------|----------------------|
|-------------------|----------------------|


  Badd11            C#m7/A   Aadd9
  E E E E E E E E    E  E  E E E E E S S
|-0-----0-----0---|--0-------0-----0-----|
|-0-----0-----0---|--0-------0-----0-----|
|-8-----8-----8---|--9--9--9-6-6-6-6-6-6-|
|-9-9-9-9-9-9-9-9-|-11-11-11-7-7-7-7-7-7-|
|-9-9-9-9-9-9-9-9-|--0--0--0-0-0-0-0-0-0-|
|-7-7-7-7-7-7-7-7-|----------------------|
|
| E E E E E E E E    E  E  E E E E E E
|-------0-2-------|----------------------|
|-0-2-4-----0-2-4-|--5--4s=2-0-----------|
|-----------------|------------2-1-------|
|-----------------|----------------4-2---|
|-----------------|----------------------|
|-----------------|----------------------|


  Badd11              C#m7/A   Aadd9
  E E E E E E E S S    E  E  E E E E E S S
|-0-----0-----0-----|--0-------0-----0-----|
|-0-----0-----0-----|--0-------0-----0-----|
|-8-----8-----8-----|--9--9--9-6-6-6-6-6-6-|
|-9-9-9-9-9-9-9-9-9-|-11-11-11-7-7-7-7-7-7-|
|-9-9-9-9-9-9-9-9-9-|--0--0--0-0-0-0-0-0-0-|
|-7-7-7-7-7-7-7-7-7-|----------------------|
|
| E E E E E E E E      E  E  E E E E E E
|-------0-2---------|--0--2--4-0-----0-----|
|-0-2-4-----0-2-4---|------------2-4---4---|
|-------------------|----------------------|
|-------------------|----------------------|
|-------------------|----------------------|
|-------------------|----------------------|


  Badd11            C#m7/A   Aadd9
  E E E E E E E E    E  E  E E E E E S S
|-0-----0-----0---|--0-------0-----0-----|
|-0-----0-----0---|--0-------0-----0-----|
|-8-----8-----8---|--9--9--9-6-6-6-6-6-6-|
|-9-9-9-9-9-9-9-9-|-11-11-11-7-7-7-7-7-7-|
|-9-9-9-9-9-9-9-9-|--0--0--0-0-0-0-0-0-0-|
|-7-7-7-7-7-7-7-7-|----------------------|
|
| E E E E E E E E    E  E  E E E E E E
|-------0-2-------|--0-------------------|
|-0-2-4-0---0-2-4-|--5--4s=2-0-----------|
|-----------------|------------2-1-------|
|-----------------|----------------4-2---|
|-----------------|----------------------|
|-----------------|----------------------|


                                          D.S. al Coda
  G#5               A5
  PM----------------------------------------------|
  E E E E E E E E   E E E E E E E E   E E E E E E E S S
|-----------------|-----------------|-------------------|
|-----------------|-----------------|-------------------|
|-----------------|-----------------|-------------------|
|-----------------|-----------------|-------------------|
|-6-6-6-6-6-6-6-6-|-7-7-7-7-7-7-7-7-|-7-7-7-7-7-7-7-7-7-|
|-4-4-4-4-4-4-4-4-|-5-5-5-5-5-5-5-5-|-5-5-5-5-5-5-5-5-5-|


 Outro
  &
  Badd11              F#7sus4/C#                   Aadd9/E
  Gtr I
  E E E E E E E S S    E  E  E  E  E  E  E  S  S   W          +W
|-0-----0-----0-----|--0--------0--------0-------|-0--------|-(0)----*|
|-0-----0-----0-----|--0--------0--------0-------|-0--------|-(0)----*|
|-8-----8-----8-----|-11-------11-------11-11-11-|-6--------|-(6)----*|
|-9-9-9-9-9-9-9-9-9-|-11-11-11-11-11-11-11-11-11-|-7--------|-(7)----*|
|-9-9-9-9-9-9-9-9-9-|--9--9--9--9--9--9--9--9--9-|-7--------|-(7)----*|
|-7-7-7-7-7-7-7-7-7-|--9--9--9--9--9--9--9--9--9-|-0--------|-(0)----*|
|
| Gtr II
| E E E E E E E E      E  E  E  E  E  E  E  E      W          +W
|-------0-2---------|--0--2--4--0--------0-------|----------|--------*|
|-0-2-4-----0-2-4---|--------------2--4-----4----|-0--------|-(0)----*|
|-------------------|----------------------------|----------|--------*|
|-------------------|----------------------------|----------|--------*|
|-------------------|----------------------------|----------|--------*|
|-------------------|----------------------------|----------|--------*|
Tap to rate this tab
# A B C D E F G H I J K L M N O P Q R S T U V W X Y Z