Song name
# A B C D E F G H I J K L M N O P Q R S T U V W X Y Z

Dashboard Confessional - The Only Gift That I Need tab

-------------------------------------------------------------------------------
			     The Only Gift That I Need - Dashboard Confessional
-------------------------------------------------------------------------------
Tabbed by: Darren Lueptow
Email: the_darren_site@yahoo.com

Tuning: Half-Step Down


Intro:

e|-0---0---0---0------|
B|-0---0---0---0------|
G|-6---9---6---7------| 
D|-7---9---6---7------|
A|-7---7---4---5------|
E|-5---0---0---0------|


Verse:


e|-0---0---0---0------|
B|-0---0---0---0------|
G|-6---9---6---7------|
D|-7---9---6---7------|
A|-7---7---4---5------|
E|-5---0---0---0------|


Chorus:

e|-0---0---0---0------|
B|-0---0---0---0------|
G|-6---6---7---9------|
D|-7---6---7---9------|
A|-7---4---5---7------|
E|-5---0---0---0------|


Outro:

e|-0---0---0---0--------------|
B|-0---0---0---0--------------|
G|-6---9---6---7--------------|
D|-7---9---6---7----7-9--11---|
A|-7---7---4---5----9-11-12---|
E|-5---0---0---0--------------|
Tap to rate this tab
# A B C D E F G H I J K L M N O P Q R S T U V W X Y Z