Song name
# A B C D E F G H I J K L M N O P Q R S T U V W X Y Z

Dashboard Confessional - Ender Will Save Us All tab

Dashboard Confessional- Ender Will Save Us All
Tuning: Drop Db
By: sasan

i dont remember how i learned this, but i think it sounds better than everyone else's tabs :)


eb------------------------------------5----------------5--------------------|
Bb--3----------------3----------------3----------------5--------------------|
Gb--2----------------0----------------0----------------7--------------------|
Db--0----------------x----------------0----------------7--------------------|
Ab--0----------------3----------------x-------------------------------------|
Db--0---------------------------------5-------------------------------------|
      its just... confess...          dress...      me
      a certain...complies...         eyes...  diguise


----------------5-----------------------------2-----------------------------|
--3-------------0-----------------------------0-----------------------------|
--2-------------6-------------5---------------0-----------------------------|
--0-------------7-------------5---------------0-----------------------------|
--0-------------0-------------3---------------2-----------------------------|
--0-------------------------------------------------------------------------|
   i wanna...    whatever...   what is it...   is it...

---------------4-----------------------------2------------------------------|
---------------2-----------------------------0------------------------------|
--7------------2--------------5--------------0------------------------------|
--7------------2--------------5--------------0------------------------------|
--5------------4--------------3--------------2------------------------------|
----------------------------------------------------------------------------|
   i wanna...    whatever...   what is it...   is it..

same chords as previous for all of this:

It's hard to explain how I am getting by
on so little from you.
It's hard to believe that I would let myself
get so wrapped in you.
There's got to be something that would
be worthwhile for me to give to you.
We need a connection but you
seem to push me far away from you.

[learn the pattern yourself, its easy]


-----------------------------------------------------------------------------|
-----------3-----------------------------------------------------------------|
---7-------x---------------3-3--3--------------------------------------------|
---7--8x---4--8x---7--8x---x-x--x---8-8---8---------4x-----------------------|
---5-------2-------5-------4-4--4---5-5---5----------------------------------|
-------------------5-------2-2--2---5-5---5----------------------------------|
  p.m.-----------------------------------------------------------------------|      p.m.
  you...

The harder I push the further I fall.
Well you don't mind me being headstrong.
But you don't want to sing along.


----------------------------------------------------------------------------|
--------------3-------------------------------------------------------------|
---7----------x-------------------------3-----------------------------------|
---7----------4------------7------------x------------8----------------------|
---5----------2------------5------------4------------5----------------------|
---------------------------5------------2------------5----------------------|
    maybe...  trite...     always...    always...    a-a-always... be wrong


now start over and play that sucker all the way through again!

heres the ending:

each chord is one strum                                           end on
----------------------------------------------------------------------------|
----------------------------------------------------------------------------|
----------------------------------------------------------------------7-----|
--444454045403450---------44----44----4h5p4---45403450----2x----------4-----|
--555555522221100---2x----55----55---------5--22221100----------------5-----|
--000000000000000---------00----00------------00000000----------------0-----|
Tap to rate this tab
# A B C D E F G H I J K L M N O P Q R S T U V W X Y Z