Song name
# A B C D E F G H I J K L M N O P Q R S T U V W X Y Z

Dashboard Confessional - What I Wanted To Say Was tab

This is based on the recording from http://www.youtube.com/watch?v=U4GEY8zYqhQ

It's pretty simple, the chords repeat throughout the whole song.


Intro
----

e|--3------------------------------------3-----------------3-------------------|
B|--3------------------------------------3-----------------3-------------------|
G|--0------------------------------------0-----------------0-------------------|
D|--0------------------------------------0-----------------0-------------------|
A|--x------------------------------------2-----------------3-------------------|
E|--3------------------------------------x-----------------x-------------------|

Verse & Chorus
-------------
Play each chord for twice as long

e|--3------------------------------------3-----------------3-------------------|
B|--3------------------------------------3-----------------3-------------------|
G|--0------------------------------------0-----------------0-------------------|
D|--0------------------------------------0-----------------0-------------------|
A|--x------------------------------------2-----------------3-------------------|
E|--3------------------------------------x-----------------x-------------------|
      We drove for hours.....              And you talked the whole way....
Tap to rate this tab
# A B C D E F G H I J K L M N O P Q R S T U V W X Y Z