Song name
# A B C D E F G H I J K L M N O P Q R S T U V W X Y Z

Dashboard Confessional - Cold Lonely And Strange tab

Dashboard Confessional - Cold Lonley And Strange
Tabbed By: Ryan
EMail: whyareyourippin@aol.com

This song is completely right although
you wont find it on a cd he recorded it right 
after he left his old band "Further seems forever"

-2-3-------2-----------------5---------
-3-3-------2---------------6-----------
-2-3-------3--------5-----5-------------
-------5------7--3--5------------------
-------5------7--3--3------------------
-------3------5--1--------------------

-2-3-------2-----------------5---------
-3-3-------2---------------6-----------
-3-1-----3--------5-5---5-------------
-------5------7--3--5------------3-----
-------5------7--3--3------------3-----
-------3------5--1---------------1---

-2-2-2--2--2--2----------------2--------
-3-3-3-----------3--3--3-------3--------
-2-2-2---------------------2---2--------
------------------------------------3---
------------------------------------3---
------------------------------------1---

now its all chords

G G G G E E E E

D D D D D7 D7 E

G G7
          repeat that chords 3 times

Ryan
Tap to rate this tab
 
# A B C D E F G H I J K L M N O P Q R S T U V W X Y Z