Song name
# A B C D E F G H I J K L M N O P Q R S T U V W X Y Z

Dashboard Confessional - Vindicated tab

-------------------------------------------------------------------------------
		Vindicated-Dashboard Confessional
-------------------------------------------------------------------------------
Tabbed by: Kristen for Brandon C

D=Strum down
U=Strum up

 

Tuning: Standard EADGBE

INTRO:
e|---------------------------------------------------------------------------|
B|---------------------------------------------------------------------------|
G|---------------------------------------------------------------------------|
D|-8-8-8-8---8-8-8-8---------------------------------------------------------|
A|-6-6-6-6---6-6-6-6--10-10-10-10---10-10-10-10---8-8-8-8--8-8-8-8-----------|
E|---------------------8--8--8--8----8--8--8--8---6-6-6-6--6-6-6-6-----------|

e|------------------|
B|------------------|
G|------------------.REPEAT INTRO
D|------------------.
A|-6-6-6-6--6-6-6-6-|
E|-4-4-4-4--4-4-4-4-|

e|---------------------------------------------------------------------------|
B|---------------------------------------------------------------------------|
G|---------------------------------------------------------------------------|
D|-8-------------------------------------------------------------------------|
A|-6--x-xx-x-xx-x-xx----10--x-xx-x-xx-x-xx-----------8--x-xx-x-xx-x-xx-------|
E|----x-xx-x-xx-x-xx-----8--x-xx-x-xx-x-xx-----------6--x-xx-x-xx-x-xx-------|
   1  2 &a 3 &a 4 &a   ETC...........................
   D  D DU D DU D DU  
  Hope     dangles on a string Like slow spinning redemption Winding in and winding 
  eye And roped me in so mesmerizing,            so    hypnotizing I am 
  FIRST ENDING	        SECOND ENDING
e|--------------------|--------------------|
B|--------------------|--------------------|
G|--------------------|--------------------|
D|--------------------|--------------------|
A|-6--x-xx-x-xx-x-xx--|-8--x-xx-x-xx-x-xx--|
E|-4--x-xx-x-xx-x-xx--|-6--x-xx-x-xx-x-xx--|
  out                     captivated  I am

CHORUS:PLAY 2 TIMES      

e|-------------------------------------------------------------------------|
B|-------------------------------------------------------------------------|
G|-------------------------------------------------------------------------|
D|-8-----------------------------------------------------------------------|
A|-6--------------6----------------------10------------------------------8-|
E|----------------4----------------------8-------------------------------6-|
   FOLLOW RHYTHM OF SONG- OR HOLD EACH CHORD OUT FOR FOUR COUNTS.
Vindicated I am selfish I am wrong I am right I swear I'm right I swear I knew it 
all along And I am 
flawed But I am cleaning up so well I am seeing in me now the things you swore you 
saw yourself so





 PLAY THIS LINE 2 TIMES
e|--------------------------------------------------------------------------|
B|--------------------------------------------------------------------------|
G|--------------------------------------------------------------------------|
D|-8------------------------------------------------------------------------|
A|-6-------------------------10----------------------------8--------------6-|
E|----------------------------8----------------------------6--------------4-|
  HOLD EACH CHORD FOR FOUR COUNTS.
clear Like the diamond in your ring Cut to mirror your intentions Oversized   
                                                                  and overwhelmed 
The shine of which has caught my 
 eye        And rendered me so isolated,    so                motivated  I am        
certain now that I am

CHORUS:PLAY 2 TIMES      

e|-------------------------------------------------------------------------|
B|-------------------------------------------------------------------------|
G|-------------------------------------------------------------------------|
D|-8-----------------------------------------------------------------------|
A|-6--------------6----------------------10------------------------------8-|
E|----------------4----------------------8-------------------------------6-|
   FOLLOW RHYTHM OF SONG- OR HOLD EACH CHORD OUT FOR FOUR COUNTS.
Vindicated I am selfish I am wrong I am right I swear I'm right I swear I knew 
it all along And I am 
flawed But I am cleaning up so well I am seeing in me now the things you swore 
you saw yourself so



e|-------- -----------|
B|--------------------|
G|--------------------|
D|--------------------|
A|-8-8-8-8--8-8-8-8---|
E|-6-6-6-6--6-6-6-6---|
   EIGHTH NOTES
                      So 


e|----------------------------------------------------------------|------------|
G|----------------------------------------------------------------|------------|
D|----------------------------------------------------------------|------------|
A|-6------------------------10--------------------------------8---|--------6---|
E|-4------------------------8---------------------------------6---|--------4---|
  HOLD EACH CHORD FOR FOUR BEATS OR FOLLOW RHYTHM OF SONG.
Turn Up the corners of your lips Part them and feel my finger tips Trace the moment, 
fall forever
Defense is paper thin   Just one touch and I'd be in Too        deep now to ever swim 
e|---------------------------|
B|---------------------------|
G|---------------------------|
D|---------------------------|
A|----8------8---8-----------|
E|----6------6---6-----------|
  A-  GAINST THE CURRENT  So let me slip aw-







PLAY INTRO AGAIN:
e|---------------------------------------------------------------------------|
B|---------------------------------------------------------------------------|
G|---------------------------------------------------------------------------|
D|-8-8-8-8---8-8-8-8---------------------------------------------------------|
A|-6-6-6-6---6-6-6-6--10-10-10-10---10-10-10-10---8-8-8-8--8-8-8-8-----------|
E|---------------------8--8--8--8----8--8--8--8---6-6-6-6--6-6-6-6-----------|
   ay So let me slip away        So let me slip away So let me slip 
e|------------------|
B|------------------|
G|------------------.REPEAT INTRO
D|------------------.
A|-6-6-6-6--6-6-6-6-|
E|-4-4-4-4--4-4-4-4-|
 against the current 

CHORUS:PLAY 2 TIMES      

e|-------------------------------------------------------------------------|
B|-------------------------------------------------------------------------|
G|-------------------------------------------------------------------------|
D|-8-----------------------------------------------------------------------|
A|-6--------------6----------------------10------------------------------8-|
E|----------------4----------------------8-------------------------------6-|
   FOLLOW RHYTHM OF SONG- OR HOLD EACH CHORD OUT FOR FOUR COUNTS.
Vindicated I am selfish I am wrong I am right I swear I'm right I swear I knew 
it all along And I am 
flawed But I am cleaning up so well I am seeing in me now the things you swore 
you saw yourself

e|-------------------------------|
B|-------------------------------|
G|-------------------------------|
D|-8-----------------------------|
A|-6-----------------------6-----|
E|-------------------------4-----|
 HOLD EACH FOR EIGHT COUNTS

Slight hope
It dangles on a string
Like slow spinning redemption...
Tap to rate this tab
# A B C D E F G H I J K L M N O P Q R S T U V W X Y Z