Song name
# A B C D E F G H I J K L M N O P Q R S T U V W X Y Z

Dashboard Confessional - Here Lies tab

E, C#, B, A

thats the whole song

e|------|------------------------------------------------------|---------------|
B|------|------------------------------------------------------|---------------|
G|------|-------------------7-7777--------------------7-7777-7-|-6-66666666-7~-|
D|-7----|-7-77777777-4-4444-7-7777--7-77777777-4-4444-7-7777-7-|-6-66666666-7~-|
A|-7-x7-|-7-77777777-4-4444-5-5555--7-77777777-4-4444-5-5555-5-|-4-44444444-5~-|
E|-5----|-5-55555555-2-2222---------5-55555555-2-2222----------|---------------|


 Chorus          x2     1st        2nd
e|-----------------|------|----------|
B|-----------------|------|----------|
G|-7-9---------7-9-|-6666-|----------|
D|-7-9-7-6-4---7-9-|-6666-|-77777777-|
A|-5-7-7-6-4---5-7-|-4444-|-77777777-|
E|-----5-4-2-------|------|-55555555-|

Verse 1 x1

 Verse 2
e|--------------------------------------------------------------------------|
B|--------------------------------------------------------------------------|
G|-----------------------------7-7777------------------------------7-7777-7-|
D|----------------------4-4444-7-7777-----7----6------------4-4444-7-7777-7-|
A|----7----7----7----7--4-4444-5-5555---------------7----7--4-4444-5-5555-5-|
E|-55---55---55---55----2-2222---------55---55---55---55----2-2222----------|


e|--------------------------------|
B|--------------------------------|
G|-6-66666666-7-7777-77777777-----|
D|-6-66666666-7-7777-77777777-----|
A|-4-44444444-5-5555-55555555-----|
E|--------------------------------|


Chorus (whole thing twice)
(pick scrape)

 Bridge                                   x2       x3
e|-------------------------------------------|-------|------------|
B|-------------------------------------------|-3-----|------------|
G|-77777777-------------------------99999999-|-2-2---|------------|
D|-77777777-77777777-7-6-4-44444444-99999999-|-0-2-2-|-2-22222222-|
A|-55555555-77777777-7-6-4-44444444-77777777-|---0-2-|-2-22222222-|
E|----------55555555-5-4-2-22222222----------|-----0-|-0-00000000-|

                 x2     1st        2nd
e|-----------------|------|----------|
B|-----------------|------|----------|
G|-7-9---------7-9-|-6666-|----------|
D|-7-9-7-6-4---7-9-|-6666-|-77777777-|
A|-5-7-7-6-4---5-7-|-4444-|-77777777-|
E|-----5-4-2-------|------|-55555555-|

                 x2     1st        2nd
e|-----------------|------|------------|
B|-----------------|------|------------|
G|-7-9---------7-9-|-6666-|------------|
D|-7-9-7-6-4---7-9-|-6666-|-77777777-7-|
A|-5-7-7-6-4---5-7-|-4444-|-77777777-7-|
E|-----5-4-2-------|------|-55555555-5-|

It's Friday night. You want to hang out with your friend's cause you've had it up to 
School just started and you wonder to yourself, "Where did my summer go?" But it will be 
right tonight because...It's Friday night. Let's go. Let's all have some fun tonight. All
right. Here we go. Here we go tonight. It's Monday again and it feels like it never ends.
did your life go? Did you forget what it was like? This week is way too slow, it'll never
end. When will it go? You've made it through the week, and now you feel just fine.
There'll be no nervous breakdown tonight because...It's Friday night. Let's go. Let's all
have some fun tonight. All right. Here we go. Here we go tonight. It doesn't matter where
we go 
what we do. Let's just do it now. Go to the Gas N Sip, and hang out there all night. It'll be all right.
Tap to rate this tab
# A B C D E F G H I J K L M N O P Q R S T U V W X Y Z