Song name
# A B C D E F G H I J K L M N O P Q R S T U V W X Y Z

Dashboard Confessional - So Long Sweet Summer tab

Title: So Long Sweet Summer
Artist: Dashboard Confessional

Tabbed by: KARVIN B. CASTILLEJOS
School: JOSE RIZAL UNIVERSITY
Email: Kurthill_18@yahoo.com or Kurthill_08@yahoo.com
Friendster: Kurthill_18@yahoo.com, kurthill_08@yahoo.com

[Tuning]: 1/2 step down
	[Eb,Ab,Db,Gb,Bb,eb]

	I DONT CLAIM THIS TAB AS THE MOST ACCURATE TAB BUT IT DOES
SOUND LIKE THE REAL THING. [INTRO RIFF]-i usually play this intro 
riff tab than other tab coz it seems closer.

[Intro riff]:

eb|-----------------------------------------|
Bb|--10-0-----------------------------------|
Gb|--------5-6-5/2-----2--------------------|
Db|----------------0-----0---------0--------|
Ab|------------------2-----2-----0-----0----|
Eb|--------------------------0-5-----2---7-3|


[VERSE 1]:

     D  A  B  G9  
eb|--2--------3-|
Bb|--3--2--3--3-|
Gb|--2--2--4--0-|
Db|--0--2--4--0-| x4
Ab|-----0--2--2-|
Eb|-----------3-|

[Take Note]: "on 3rd time PMute the D chord then strum normally"

So long sweet summer---------------------------(girl fading) -/> "so long sweet summer"
I stumbled upon you and gratefully basked in your rays 
So long sweet summer---------------------------(girl fading) -/> "so long sweet summer"
I fell into you 
Now you're gracefully falling away 



[Verse 2]:

eb|-3-----3-----------0------------2-----5-----3---|
Bb|---2-----2-------2---2--------0---0-----0-----0-|
Gb|-----3-----3---0-------0---2-------2-----0-----0|
Db|------------------------------------------------|x4
Ab|-------------------------2----------------------|
Eb|-------------0----------------------------------|

Hey thanks
Thanks for that summer 
It's cold where you're going 
I hope that your heart's always warm 
I gave you the best 
Gave you the best that I have-------------------(girl fading) -/> "Gave you the best that I have"
fast on the letters
fast on best that i have------------------------(girl fading) -/>  "fast on best i have"

[Verse 3]:

     D  A  B  G9  
eb|--2--------3-|
Bb|--3--2--3--3-|
Gb|--2--2--4--0-|
Db|--0--2--4--0-| x4
Ab|-----0--2--2-|
Eb|-----------3-|

[Take Note]: "on 3rd time pm the D chord then strum normally"

So, so long sweet summer------------------------(girl fading) -/> "so long sweet summer"
I stumbled upon you and gratefully basked in your rays 
So long sweet summer----------------------------(girl fading) -/> "so long sweet summer"
I fell into you 
Now you're gracefully falling away 

[Outro]:

eb|-------|
Bb|-------|
Gb|-------|
Db|7-4-9-5|x8
Ab|7-4-9-5|
Eb|5-2-7-3|

I hate the winter, in Lexington
I hate the winter, in Lexington 
In Lexington, Lexington, Lexington---------------(girl fading) -/> "In Lexington, Lexington, Lexington"

eb|-----------------------------------------|
Bb|--10-0-----------------------------------|
Gb|--------5-6-5/2-----2--------------------|
Db|----------------0-----0---------0--------|
Ab|------------------2-----2-----0-----0----|
Eb|--------------------------0-5-----2---7-3|
|
[END]

[THIS IS PRETTY EASY FOR ANYONE]
[ENJOY AND KEEP ON ROCKIN']
[I dedicate this song to all EMO fannaticZ and specially to my special someone]
Tap to rate this tab
 
# A B C D E F G H I J K L M N O P Q R S T U V W X Y Z