Song name
# A B C D E F G H I J K L M N O P Q R S T U V W X Y Z

Dashboard Confessional - Hope Youre Happy tab

This is my first tab so there might be a few mistakes
that i looked over so dont get too frustrated!! ;) Enjoy!!
tabbed by: Alex

Dashboard Confessional
Hope Your Happy

Tuning: Eb

Intro:

e------------------------------------------------|
b------------------------------------------------|
g----------------------------------------1-2-1---|
d------9---6-7-6-------7---6-7-6-------2-------2-|
A----7---0-------7---4---0-------7---0-----------|
E--0---------------0---------------2-------------|


e--------------------------------------0---------0-------|
b----------------------0---------------0-------0---0-----|
g------------------------------------2-------5-------5---|
d------9---6/4/6/4-4/2---2-4/6/4---4-------7-----------7-|
A----7---0-----------------------4-------7---------------|
E--0-----------------------------------------------------|

Verse 1:

e-----------------0-----------------------------0--0--0--|
b-----------------0-----------------------------0--0--0--|
g-13--13--13--14--6---------13--13--13--14--13--4--6--2--|
d--x---x---x---x--6----------x---x---x---x---x--4--6--2--|
A-11--11--11--12--0---------11--11--11--12--11--0--0--0--|
E--0---0---0---0--x----------0---0---0---0---0--x--x--x--|


e-----------------0-----------------------------0--0--0--|
b-----------------0-----------------------------0--0--0--|
g-13--13--13--14--6---------13--13--13--14--13--4--6--2--|
d--x---x---x---x--6----------x---x---x---x---x--4--6--2--|
A-11--11--11--12--0---------11--11--11--12--11--0--0--0--|
E--0---0---0---0--x----------0---0---0---0---0--x--x--x--|

Chorus:

e--0--0--0------------------------0--|
b--0--2--0------------------------0--|
g--1--3--6--14--13--11--9--9--11--6--|
d--2--4--6---x---x---x--x--x---x--6--|
A--2--4--0--12--11---9--7--7---9--0--|
E--0--0--x---0---0---0--0--0---0--x--|


e--0--0--0------------------------0--|
b--0--2--0------------------------0--|
g--1--3--6--14--13--11--9--9--11--6--|
d--2--4--6---x---x---x--x--x---x--6--|
A--2--4--0--12--11---9--7--7---9--0--|
E--0--0--x---0---0---0--0--0---0--x--|


Repeat intro
Repeat Verse
Repeat intro

end on:

e----0----|
b----0----|
g----1----|
d----2----|
A----2----|
E----0----|

Have fun!! ;)
Tap to rate this tab
# A B C D E F G H I J K L M N O P Q R S T U V W X Y Z