Song name
# A B C D E F G H I J K L M N O P Q R S T U V W X Y Z

Dashboard Confessional - Knock Em Dead tab

Kncok Em Dead - Dashboard Confessional (UNRELEASED TRACK FROM 2002 TOUR)

(only the first parts)


don't know name of this chord (but lets call it Dsus3):

e:]---000-|
B:]---111-|
G:]---000-|


Intro
e:]-----0---------------------------0-|
B:]-1-3---0-3/1---1---1-0---0-1-3-----|
G:]-------------2---2-----2-------0---|
D:]-----------------------------------|
A:]-----------------------------------|
E:]-----------------------------------|

e:]-----0-------------------------3-0-|
B:]-1-3---0-3/1---1---1-0---0-1-3-----|
G:]-------------2---2-----2-----------|
D:]-----------------------------------|
A:]-----------------------------------|
E:]-----------------------------------|

e:]-----11111-0-|
B:]-1-3-33333-1-|
G:]-----22222-0-|
D:]-------------|
A:]-------------|
E:]-------------|


VERSE:

C , Dm7 , Am , G , C , G , Dm7 , Dsus3


CHORUS:

C , G , Am , Dm7 , Dsus3
Tap to rate this tab
 
# A B C D E F G H I J K L M N O P Q R S T U V W X Y Z