Song name
# A B C D E F G H I J K L M N O P Q R S T U V W X Y Z

Dashboard Confessional - Stolen Acoustic tab

This is 99.9% correct


Half Step down
e---------------------------------------------|
b---------------------------------------------|
g--9--9--9--9---------------------------------|
d--9--9--9--9---------------------------------|
a--7--0--x--0---------------------------------|
E--0--x--9--x---------------------------------|


invitations only, grand farewells.............
e--------------------------------------------|
b--------------------------------------------|
g--4--6--4-----------------------------------|
d--4--6--2-----------------------------------|
a--2--4--0-----------------------------------|
E--x--x--x-----------------------------------|

chorus
e----------------------------------------------|
b-----5----------------------------------------|
g--1--6--2--4--9-------------------------------|
d--2--6--2--4--9-------------------------------|
a--2--4--0--0--0-------------------------------|
E--0--x--x--x--x-------------------------------|

e-----------------------------------------------|
b-----5-----------------------------------------|
g--1--6--2--4--6--------------------------------|
d--2--6--2--4--6--pause-------------------------|
a--2--4--0--0--0--------------------------------|
E--0--x--x--x--x--------------------------------|
Tap to rate this tab
 
# A B C D E F G H I J K L M N O P Q R S T U V W X Y Z