Song name
# A B C D E F G H I J K L M N O P Q R S T U V W X Y Z

Dashboard Confessional - Heaven Here tab

Help us improve GuitareTab! Take a short survey!
Heaven Here
by Dashboard Confessional
from the album Dusk and Summer.
tabbed by Carl C. (CCon2284@yahoo.com)

The chords in this song are strung very lightly, 
the synths and keys are what make the song 
and of course Chris' voice. Listen to song to get timings down.

Tuning: STANDARD
Key of C
{C  D  E  F  G  A  B  C}

SYNTHS:
INTRO and VERSE:

{Gtr. 1}
E|---------------|------------------|
B|---------------|------------------|
G|---------------|------------------|
D|---------------|------------------|	x3
A|---------7--8--|---------7--10----|
E|--8--10--------|--8--10-----------|
		     "We are the only..."

{Each note is held for an entire bar/4 beats (not played on each beat)}
{Gtr. 2}
E|----------------------------|
B|-----5--6-----5--6-----5----|
G|--5--------5--------5-------|
D|----------------------------|	x8
A|----------------------------|
E|----------------------------|
   "tonight we drink..."

{played simultaneously as intro riff, 
these riffs are not relative to one another
Gtr. 1 is playing whole notes, Gtr. 2 is playing Eighth notes
this riff should end at lyric "...we know behind"}


PRE-CHORUS:

{each part is right after lyrics "so let it last all night..."}
{Gtr. 3}
E|--------------12--|--------------15--12----|
B|------12--13------|------12--13------------|
G|--12--------------|--12--------------------|
D|------------------|------------------------|
A|------------------|------------------------|
E|------------------|------------------------|

E|------------------|------------------12----|
B|------12--13------|------12--13--15--------|
G|--12--------------|--12--------------------|
D|--------------14--|------------------------|
A|------------------|------------------------|
E|------------------|------------------------|

CHORUS:

{Gtr. 2}
E|----------------------------|
B|-----5--6-----5--6-----5----|
G|--5--------5--------5-------|
D|----------------------------|
A|----------------------------|
E|----------------------------|

{Gtr. 3}
E|--------------------|
B|--13--12------------|
G|----------12--------| x2
D|--------------14----|
A|--------------------|
E|--------------------|

(and then)
E|------------------12--|
B|------12--13--15------|
G|--12------------------| x2
D|----------------------|
A|----------------------|
E|----------------------|

INSTRUMENTAL BRIDGE:

{Gtr. 1}
E|---------------|
B|---------------|
G|---------------|
D|---------------|
A|---------7--8--|
E|--8--10--------|

{Gtr. 2}
E|----------------------------|
B|-----5--6-----5--6-----5----|
G|--5--------5--------5-------|
D|----------------------------|
A|----------------------------|
E|----------------------------|

VERSE:
{Gtr. 1}
E|------------------|-----------------|
B|------------------|-----------------|
G|------------------|-----------------|
D|------------------|-----------------|
A|---------7--10----|---------7--8----|
E|--8--10-----------|--8--10----------|
   "We are tangled..."
   
{Gtr. 2}
E|----------------------------|
B|-----5--6-----5--6-----5----|
G|--5--------5--------5-------|
D|----------------------------|
A|----------------------------|
E|----------------------------|

{Gtr. 3}
E|--15--12------------|
B|----------13--15----|
G|--------------------|
D|--------------------| x4
A|--------------------|
E|--------------------|

PRE-CHORUS:

{Gtr. 3}
E|--------------12--|--------------15--12----|
B|------12--13------|------12--13------------|
G|--12--------------|--12--------------------|
D|------------------|------------------------|
A|------------------|------------------------|
E|------------------|------------------------|

E|------------------|------------------12----|
B|------12--13------|------12--13--15--------|
G|--12--------------|--12--------------------|
D|--------------14--|------------------------|
A|------------------|------------------------|
E|------------------|------------------------|
"So let it last all night..."

{Gtr. 2}
E|----------------------------|
B|-----5--6-----5--6-----5----|
G|--5--------5--------5-------|
D|----------------------------|
A|----------------------------|
E|----------------------------|
"Naked and tangled..."

{Gtr. 3}
E|--15--12------------|
B|----------13--15----|
G|--------------------|
D|--------------------|
A|--------------------|
E|--------------------|

E|------------------12--|------------------12--|
B|------12--13--15------|------12--13--15------|
G|--12------------------|--12------------------|
D|----------------------|----------------------|
A|----------------------|----------------------|
E|----------------------|----------------------|

{Gtr. 4}
E|------12--13------12--13------13----|
B|--13----------13----------13--------|
G|------------------------------------|
D|------------------------------------|
A|------------------------------------|
E|------------------------------------|

CHORUS:

{Gtr. 2}
E|----------------------------|
B|-----5--6-----5--6-----5----|
G|--5--------5--------5-------|
D|----------------------------|
A|----------------------------|
E|----------------------------|
"Naked and tangled..."

{Gtr. 3}
E|--15--12------------|
B|----------13--15----|
G|--------------------|
D|--------------------|
A|--------------------|
E|--------------------|

E|------------------12--|------------------12--|
B|------12--13--15------|------12--13--15------|
G|--12------------------|--12------------------|
D|----------------------|----------------------|
A|----------------------|----------------------|
E|----------------------|----------------------|

{Gtr. 4}
E|------12--13------12--13------13----|
B|--13----------13----------13--------|
G|------------------------------------|
D|------------------------------------|
A|------------------------------------|
E|------------------------------------|

{Rhythm Gtr.}
INTRO:

C  Dm  Em  F

VERSE 1:

C	    Dm		 Em	F
we are the only ones who feel it
C	    Dm		      Em		 F		   C
tonight we drink, tonight we dance with all the last ones who can hear it
		  Dm			  Em
we're calling in whispers, we're tired of waiting
			F				C
we'll take what we want and leave, leave what we know behind
		Dm	      Em			F
we are still dreamers in our dead sleep, naked and tangled, twisted in love
C			Dm	      Em	F
and tonight we are the only ones who feel it

PRE-CHORUS:

C			  Em			   F
so let it last all night, so let it last all night
		      Am		  F		  Em
let the fire surround us, let it all cave in, let it all burn wild
			F			     C
we are leaving it all behind, we are leaving it all behind

CHORUS:

C
Em	   F
heaven is here
C
heaven is here
Em	   F
heaven is here

INTRUMENTAL BRIDGE:

C  Dm  Em  F

{Sounds good if you arpegiate this}

VERSE 2:
	
	C	    Dm
we are tangled and brave
	Em	    F
we are leaking and saved
C			  Dm			Em
when heaven's not waiting, it's spilling its secrets
			F				  C
it's right here between us, and we've no other choice but belief
			 Dm
with no other choice but belief
			 Em	F
with no other choice but belief

PRE-CHORUS:
C		   Dm
so let it last all night
		   Em		F
so let it last all night
C		   Dm
so let it last all night
Em		F
oh let it last all night

C	   Dm		Em	  F
naked and tangled and twisted in love
     C			Dm	     Em		F
and tonight we are the only ones who feel it
	   C	Dm
heaven is here-
	   Em	F
heaven is here-
	C		Dm	      Em	F	C
and tonight we are the only ones who feel it

-End-

Related for Heaven Here tab