Song name
# A B C D E F G H I J K L M N O P Q R S T U V W X Y Z

Dashboard Confessional - Slow Decay tab

ok. i figured it out in like the last 5 seconds. so this is only the first part. its a 
step down, in drop D. on bass. this is a very rushed tab. i am sorry for mistakes. 
and tell me about them, then i will get back to you.
i managed to tab the easy part =D. here it is:

The fingering for the first part is a simple Em.

Eb:--------------------------------------------------------|
Bb:--------------------------------------------------------|
Gb:--------------------------------------------------------|
Db:2-2--2-2-2-2--2-2---------------------------------------|
Ab:------------------2-2-----------------------------------|
Db:---------------------5-5--2-2--0-0-2-0------------------|

then the intro for the guitar (with a slight palm mute)

Eb:---------------------------------------------------------------------------|
Bb:---------------------------------------------------------------------------|
Gb:---------------------------------------------------------------------------|
Db:---------------------------------------------------------------------------|
Ab:---------------------------------------------------------------------------|
Db:5-5-5-5-5-5-5-5--7-7-7-7-7-7-7-7--9-9-9-9-9-9-9-9--10-10-10-10-10-10-10-10-|

yeah. ok. well thats it. currently some of my tabs arent being admitted? but maybe this 
will get up soon. i will to the rest of this song (as much as i can) tomrrow, seeing as 
is 11:45. good night.
Tap to rate this tab
 
# A B C D E F G H I J K L M N O P Q R S T U V W X Y Z