Song name
# A B C D E F G H I J K L M N O P Q R S T U V W X Y Z

Dashboard Confessional - Rooftop And Invitations tab

-----------------------------------------------------------------------------
	      Rooftop and Invitations - Dashboard Confessional
                                    Intro
-----------------------------------------------------------------------------
   This is my first tab, so be kind on me, would'ya? :)
   It's probably not 100%, but sounds OK to me ^^

   Tabbed by: Poxpoone
   Email: Poxpoone@Hotmail.Com

   Tuning: Standard E,A,D,G,B,e.

e|-1111---------8----10----------------------------------------------------|
B|--------11---------------------------------------------------------------|
G|-----10----10---10----10-------------------------------------------------|
D|-------------------------------------------------------------------------|
A|-------------------------------------------------------------------------|
E|-------------------------------------------------------------------------|

   There is also a second guitar playing something three times during the intro:

e|-------------------------------------------------------------------------|
B|--11--13--11-------------------------------------------------------------|
G|-------------------------------------------------------------------------|
D|-------------------------------------------------------------------------|
A|-------------------------------------------------------------------------|
E|-------------------------------------------------------------------------|
   Simple as that... :p

   And also in the verses, there is this small riff between the sentences Chris sings:

e|-------------------------------------------------------------------------|
B|-------------------------------------------------------------------------|
G|-------------------------------------------------------------------------|
D|------10--8--------------------------------------------------------------|
A|--11---------------------------------------------------------------------|
E|-------------------------------------------------------------------------|
Tap to rate this tab
# A B C D E F G H I J K L M N O P Q R S T U V W X Y Z