Song name
# A B C D E F G H I J K L M N O P Q R S T U V W X Y Z

Dashboard Confessional - The Shade Of Poison Trees tab

----------------------------------------------------------------------------
              The Shade Of Poison Trees - Dashboard Confessional
----------------------------------------------------------------------------

Tabbed by: Jordan

Tuning: Half Step Down!

 Intro: guitar 2 strums the root chords begining on the *
   
                  *  
e|-0~-~-~-~--0~-~-~-~-1~-~-~-~--0~-0-0~-00--|
B|-1~-1-0-1--1~-1-0-1-1~-1-0-1--1~-1-1~-11--|
G|-0~-~-~-~--2~-~-~-~-2~-~-~-~--0~-0-0~-00--|  
D|-2~-~-~-~--2~-~-~-~-3~-~-~-~--2~-2-2~-22--|   
A|-3~-~-~-~--0~-~-~-~-3~-~-~-~--3~-3-3~-33--|
E|--------------------1~-~-~-~--------------|

 Verses:
   *
e|-0~-~-~-~--0~-~-~-~-1~-~-~-~--0~-0-0~-00--|
B|-1~-1-0-1--1~-1-0-1-1~-1-0-1--1~-1-1~-11--|
G|-0~-~-~-~--2~-~-~-~-2~-~-~-~--0~-0-0~-00--|  
D|-2~-~-~-~--2~-~-~-~-3~-~-~-~--2~-2-2~-22--|   
A|-3~-~-~-~--0~-~-~-~-3~-~-~-~--3~-3-3~-33--|
E|--------------------1~-~-~-~--------------|

 Chorus:
                                       *
e|-0~-0-0~-00--1~-1-1~-11--0~-0-0~-00--3~-3-3~-33--|
B|-1~-1-1~-11--1~-1-1~-11--1~-1-1~-11--3~-3-3~-33--|
G|-2~-2-2~-22--2~-2-2~-22--0~-0-0~-00--0~-0-0~-00--|
D|-2~-2-2~-22--3~-3-3~-33--2~-2-2~-22--0~-0-0~-00--| end on * second time
A|-0~-0-0~-00--3~-3-3~-33--3~-3-3~-33--2~-2-2~-22--|
E|-------------1~-1-1~-11--------------3~-3-3~-33--|

 Guitar 2: very quiet in 16th notes

e|------------------------------|
B|------------------------------|
G|-5-0-5-0-5-0-5-0-5-0-5-0-5-0--|
D|--5-5-5-5-5-5-5-5-5-5-5-5-5-5-| repeat as necesary
A|------------------------------|
E|------------------------------|

pm******************************|

Song Order:

Intro 
Verse x3
Chorus x2
Verse x4
Chorus x2
Intro x2
Tap to rate this tab
# A B C D E F G H I J K L M N O P Q R S T U V W X Y Z