Song name
# A B C D E F G H I J K L M N O P Q R S T U V W X Y Z

Dashboard Confessional - Keep Watch For The Mines tab

----------------------------------------------------------------------------
           Keep Watch for the Mines - Dashboard Confessional
----------------------------------------------------------------------------
Tabbed by:cbwasson
Email:calebbwasson@yahoo.com

Tuning:
e-> Db tune down 1 step
B-> Db tune up 1 step
G-> Db tune down 2 1/2 steps
D-> Db tune down 1/2 step
A-> Ab tune down 1/2 step
E-> Db tune down 1 step

Intro is (from normally e to E) x3 000555 x1(mute)000444. You play that three times.


Verse:
    [********staccato************]  x3 mute x3 mute x2  x2
Db|--0-----0------0----0----0---0---0---0---0---0---0---0------------------|
Db|--0-----0------0----0----0---0---0---0---0---0---0---0------------------|
Db|--0-----0------0----0----0---0---0---0---0---0---0---0------------------|
Db|--11----12-----5----7----5---4---5---4---5---4---5---4------------------|
Ab|--x-----x------5----x----5---4---5---4---5---4---5---4------------------|
Db|--11----12-----5----7----5---4---5---4---5---4---5---4------------------|

e|--0-----0-----0-----0-----0-----0------------------------------------|
B|--0-----0-----0-----0-----0-----0------------------------------------|
G|--0-----0-----0-----0-----0-----0------------------------------------|
D|--0-----10----4-----0-----10----4------------------------------------|
A|--0-----x-----4-----0-----x-----4------------------------------------|
E|--0-----10----4-----0-----10----4------------------------------------|

***Repeat first verse twice***

Chorus:
e|-0-----0-----0---------------------------------------------------------|
B|-0-----0-----0---------------------------------------------------------|
G|-0-----0-----0-----*Repeat 4 times*------------------------------------|
D|-0-----10----4---------------------------------------------------------|
A|-0-----x-----4---------------------------------------------------------|
E|-0-----10----4---------------------------------------------------------|

Bridge:Play this rapidly in 16th notes (same pace as "Again I Go Unnoticed" by Dashboard 
if you've heard it)
     x12   x12    x24
e|---0-----0------0------------------------------------------------------|
B|---0-----0------0------------------------------------------------------|
G|---0-----0------0-----*Repeat 6 times*---------------------------------|
D|---0-----3------5------------------------------------------------------|
A|---0-----3------5------------------------------------------------------|
E|---0-----3------5------------------------------------------------------|

For the end, you just play the chorus and then the verse twice

*Ending chord is open on every string*

| /  slide up
| \  slide down
| h  hammer-on
| p  pull-off
| ~  vibrato
| +  harmonic
| x  Mute note
============================================================================
Tap to rate this tab
# A B C D E F G H I J K L M N O P Q R S T U V W X Y Z