Song name
# A B C D E F G H I J K L M N O P Q R S T U V W X Y Z

Dashboard Confessional - Clean Breaks tab

Help us improve GuitareTab! Take a short survey!
Song: Clean Breaks
Artist: Dashboard Confessional
Album: The Shade of Poison Trees
Tuning: 1/2 step down

the whole song uses this rift. it's based off of the C cord. There is a bridge in the 
but i may tab that out later.

eb--------------------------------------------|
Bb----------1------------1--------------------|
Gb---------------------------------0----------|
Db----2-3-2---2----2-3-2---2-----2---2-3-2----|
Ab--3------------0-------------3--------------|
Eb--------------------------------------------|

eb--------------------------------------------|
Bb----------1------------1--------------------|
Gb--------------------------------0-----------|
Db----2-3-2---2----2-3-2---2----2---2-3-2-----| then go back and start over.
Ab--0------------3------------0---------------|
Eb--------------------------------------------|

play these over and over and you got the song (minus the bridge) very simple and easy
Related for Clean Breaks tab