Song name
# A B C D E F G H I J K L M N O P Q R S T U V W X Y Z

Datsuns - Lady tab

-----------------------------------------------------------------------------
			     Lady - The Datsuns
-----------------------------------------------------------------------------
Tabbed by: Greg Rippon
Email:gregory.rippon@virgin.net

Tuning:normal

Fig. 1
Intro, Verses, Chorus

e|--------------|
B|--------------|
G|--------------| x 3 then Bb slide up to C
D|-5-5----------|
A|-5-5-0h1-0----|
E|-3-3------1-2-|

Fig. 2
Bridge to Chorus

e|-2------------|
B|-3------------|
G|-2------------| x 4 back to Fig. 1
D|-0---3--------|
A|-------5-3-5--|
E|--------------|

Fig 3
Middle (ad lib over top)
e|--------------------------------------------------------------------------|
B|--------------------------------------------------------------------------|
G|-------------------3-5----------------------------------------------------|
D|-5-5---5-5---5-5---3-5----------------------------------------------------|
A|-5-5---5-5---5-5---1-3----------------------------------------------------|
E|-3-3---3-3---3-3----------------------------------------------------------|

And it's as easy as that! 



| /  slide up
| \  slide down
| h  hammer-on
| p  pull-off
| ~  vibrato
| +  harmonic
| x  Mute note
=============================================================================
Tap to rate this tab
# A B C D E F G H I J K L M N O P Q R S T U V W X Y Z