Guitaretab - guitar tabs
Song name
# A B C D E F G H I J K L M N O P Q R S T U V W X Y Z

Datsuns - Stuck Here For Days tab

                                                   Artist: The Datsuns
                                                   Song: Stuck Here For Days
                                                   Albums: Stuck Here For Days EP
                                                           Smoke & Mirrors
                                                   Guitarists: Christian & Phil Datsun
                                                   Tuning: Open Gb/F#

This is one of my all time favourite songs, I haven't fully transcribed it, but I've 
all of the main bits that more important.

Main Riff
                            |~~~~~~~~|w/ slide

Db|-------------0-----------/12-12-12-------------0-------------|
Bb|---/3-0---/6-3--0-/3-0---/12-12-12---/3-0---/6-3-------------|
Gb|--------4--------------4-/12-12-12--------4------0-3-0---0--*|
Db|-------------------------/12-12-12---------------0-3-0-3-0---|
Gb|-------------------------------------------------------5----*|
Db|-------------------------------------------------------------|


Verses
[ Tab from: http://www.guitaretab.com/d/datsuns/179832.html ]
Main Riff until "I'll be back soon" then...

                    (1)---------------------------- (2)--------------------------------

Db|---------------------------0-----------/12-12-12-]------------------------------------|
Bb|-8-8-8-8-8-8-7---/3-0---/6-3--0-/3-0---/12-12-12-]-3-3-3-3-5-5-5-5-8-8-8-10-8-7-7-7-7-|
Gb|-8-8-8-8-8-8-7--------4--------------4-/12-12-12-]-3-3-3-3-5-5-5-5-8-8-8-10-8-7-7-7-7-|
Db|-8-8-8-8-8-8-7-------------------------/12-12-12-]-3-3-3-3-5-5-5-5-8-8-8-10-8-7-7-7-7-|
Gb|-------------------------------------------------]------------------------------------|
Db|-------------------------------------------------]------------------------------------|

                x3
Db|-------------|----------|
Bb|-------------|---/5-5-5-|
Gb|--0-3-0---0-*|-0-/5-5-5-|
Db|--0-3-0---0--|-0-/5-5-5-|
Gb|-------5----*|---/5-5-5-|
Db|-------------|----------|


***Insert Slide Solo***


Outro Lick

Db|-----------------|
Bb|-----------------|
Gb|-0-/3-0----------|
Db|-------/3-0------|
Gb|------------/3p0-|
DB|-----------------|
Related for Stuck Here For Days tab