Song name
# A B C D E F G H I J K L M N O P Q R S T U V W X Y Z

Datsuns - Super Gyration tab

The Datsuns
Supergyration!

Tabed By Regan Hutchins

Intro: 8X

E|--------------------------------|
B|--------------------------------|
G|--------------------------------|
D|--------------------------------|
A|-----5-6-7----------------------|
E|---7-------0--3--3-4-4-5-5-6-6--|


Verse: 2X

E|---------|---------|---------|-----------|
B|---------|---------|---------|-----------|
G|---------|---------|---------|---7\9-9---|
D|---9-----|---9-----|---9-----|---7\9-9---| 2X
A|---9-----|---9-----|---9-----|---5\7-7---|
E|---7-----|---7-----|---7-----|-----------|

E|--------------------------------|
B|--------------------------------|
G|--------------------------------|
D|--------------------------------| 2X
A|-----5-6-7----------------------|
E|---7-------0--3--3-4-4-5-5-6-6--|


Main Riff: 2X

E|--------------------------------|
B|--------------------------------|
G|--------------------------------|
D|--------------------------------|
A|-----5-6-7----------------------|
E|---7-------0--3--3-4-4-5-5-6-6--|


Chorus: 2X

E|--------------------------------------------------|
B|--------------------------------------------------|
G|---------------------9-7--------------------------|
D|---9--9--12----9--9--9-7---9--9--12--5-5-6-6-7-7-8|
A|---9--9--12----9--9--7-5---9--9--12--5-5-6-6-7-7-8|
E|---7--7--10----7--7--------7--7--10--3-3-4-4-5-5-6|


Main Riff: 4X

E|--------------------------------|
B|--------------------------------|
G|--------------------------------|
D|--------------------------------|
A|-----5-6-7----------------------|
E|---7-------0--3--3-4-4-5-5-6-6--|


Verse 2:

E|---------|---------|---------|-----------|
B|---------|---------|---------|-----------|
G|---------|---------|---------|---7\9-9---|
D|---9-----|---9-----|---9-----|---7\9-9---| 2X
A|---9-----|---9-----|---9-----|---5\7-7---|
E|---7-----|---7-----|---7-----|-----------|

E|--------------------------------|
B|--------------------------------|
G|--------------------------------|
D|--------------------------------| 4X
A|-----5-6-7----------------------|
E|---7-------0--3--3-4-4-5-5-6-6--|


Chorus: 4X

E|--------------------------------------------------|
B|--------------------------------------------------|
G|---------------------9-7--------------------------|
D|---9--9--12----9--9--9-7---9--9--12--5-5-6-6-7-7-8|
A|---9--9--12----9--9--7-5---9--9--12--5-5-6-6-7-7-8|
E|---7--7--10----7--7--------7--7--10--3-3-4-4-5-5-6|


Break:

E|-----|
B|-----|
G|-----|
D|--5--|
A|--5--|
E|--3--|

Sory dont no the solo, its based around the Am Pentatonic.
This is played during the solo:

E|--------------------------------|
B|--------------------------------|
G|--------------------------------|
D|--------------------------------| 4X
A|-----5-6-7----------------------|
E|---7-------0--3--3-4-4-5-5-6-6--|

E|--------------------------------|
B|--------------------------------|
G|--------------------------------|
D|-----5-6-7----------------------|
A|---7-------0--3--3-4-4-5-5-6-6--|
E|--------------------------------|

E|--------------------------------|
B|--------------------------------|
G|--------------------------------|
D|--------------------------------| 4X
A|-----5-6-7----------------------|
E|---7-------0--3--3-4-4-5-5-6-6--|


Then its a chorus and main riff to finish.

good sond, the Datsuns first single. only avaliable on 7" (untill it was re-released as 
B side for In Love in 2002).

comments to
dr.feelgud@gmail.com
Tap to rate this tab
# A B C D E F G H I J K L M N O P Q R S T U V W X Y Z