Song name
# A B C D E F G H I J K L M N O P Q R S T U V W X Y Z

Datsuns - Lady tab

The Datsuns - Lady

Tab by Jesus Arellano S

Intro Both Guitars:

e|---------------|
B|---------------|
G|---------------| x 3
D|-5-5-----------|
A|-5-5-0h1-------|
E|-3-3-----0-1-2-|

Verse 1:

e|---------------|
B|---------------|
G|---------------| x 3
D|-5-5-----------|
A|-5-5-0h1-------|
E|-3-3-----0-1-2-|

e|---------------|
B|---------------|
G|-5-5-----------|
D|-5-5-----------|
A|-3-3-----------|
E|---------------|

Bridge to chorus:

e|-2------------|
B|-3------------|
G|-2------------| x 4
D|-0---3--------|
A|-------5-3-5--|
E|--------------|

Chorus:

e|---------------|
B|---------------|
G|---------------| x 3
D|-5-5-----------|
A|-5-5-0h1-------|
E|-3-3-----0-1-2-|

e|---------------|
B|---------------|
G|-5-5-----------|
D|-5-5-----------|
A|-3-3-----------|
E|---------------|

Verse 2 = Verse 1 with p.m.

Guitar 2 (0:49):

e|------------------------|
B|------------------5b6-5-|
G|-5b6--5p3---------5b6-5-|
D|----------3-5-----------|
A|------------------------|
E|------------------------|

Bridge to chorus

Chorus:

Guitar solo:

e|-6----3-3-------------------------------------------|
B|-5b6--3-3--5-3-5b6----------------------------------|
G|-----------5-3-5b6-3--------------------------------|
D|---------------------5------------------------3-5---|
A|-------------------------------------------3h5------|
E|------------------------3-6b7-3-6b7-3-6b7-----------|

e|---------------------------------------------------|
B|-/6--6-6-6-6-6-6-6-6------11-13b14-13b14r13p11-----|
G|-/7--7-7-7-7-7-7-7-7--/12----------------------12--|
D|---------------------------------------------------|
A|---------------------------------------------------|
E|---------------------------------------------------|

e|------------------------|
B|-/6-5-3-----------------|
G|-/7-5-3---3-5b6r5p3-----|
D|--------5-----------5---|
A|------------------------|
E|------------------------|

e|-----------11----------------11-13-------------|
B|-/13-13-13----13-11-13-13-13-------11-12-13-13-|
G|-----------------------------------------------|
D|-----------------------------------------------|
A|-----------------------------------------------|
E|-----------------------------------------------|

e|-11h13p11-------------------------8-------|
B|----------13p11h13p11---------------11b13-|
G|----------------------11p9-11b13----------|
D|------------------------------------------|
A|------------------------------------------|
E|------------------------------------------|

e|-13-----13-----13------------------------13----|
B|-13b14--13b14--13b14--13-11----11-13b14--13b14-|
G|----------------------------12-----------------|
D|-----------------------------------------------|
A|-----------------------------------------------|
E|-----------------------------------------------|

e|------------------------------|
B|-/6-5-3-----------------------|
G|-/7-5-3---3-5*b6r5-3-------7v-|   (* = pinch harmonic) (v = vibrato)
D|--------5------------5--------|
A|------------------------------|
E|------------------------------|

Rythm solo:

e|-----------------------------|
B|-----------------------------|
G|--------------- (1:32 - 1:45-|
D|-5-5-------------------------|
A|-5-5-0h1---------------------|
E|-3-3-----0-1-2---------------|

e|------------------------------------------------------------------|
B|------------------------------------------------------------------|
G|---------------------------------------------------- (1:45 - 1:58-|
D|-------1----------1-3-----------1-----------1-3-------------------|
A|-3-3-3---3-1-3-3-3----1-2-3-3-3---3-1-3-3-3-----1-2---------------|
E|------------------------------------------------------------------|

e|-----------------------------------------------------|
B|-----------------------------------------------------|
G|-----------------------------------------------------|
D|-----------------------------------------------------|
A|-------1-----------1-3-----------1-----------1-3-----|
E|-3-3-3---3-1-3-3-3-----1-2-3-3-3---3-1-3-3-3-----1-2-|

Bridge to chorus

Chorus 2: (x2)

e|---------------|
B|---------------|
G|---------------|
D|-5-5-----------|
A|-5-5-0h1-------|
E|-3-3-----0-1-2-|

e|---------------|
B|---------------|
G|---------------|
D|-5-5-----------|
A|-5-5-0h1-------|
E|-3-3-----0-1-2-|

e|---------------|
B|---------------|
G|---------------|
D|-5-5-----------|
A|-5-5-0h1-------|
E|-3-3-----0-1-2-|

e|---------------|
B|---------------|
G|---------------|
D|-5-5-----------|
A|-5-5-0h1-------|
E|-3-3-----0-1-2-|

e|---------------|
B|---------------|
G|-3-5-----------|
D|-3-5-----------|
A|-1-3-----------|
E|---------------|

Bridge:

Guitar 1:

e|-----
B|-----
G|-----  x3
D|-5-5-
A|-5-5-
E|-3-3-

e|---------------|
B|---------------|
G|-3-5-----------|
D|-3-5-----------|
A|-1-3-----------|
E|---------------|

Guitar 2:

e|-3-3---------|
B|-3-3---------|
G|-----5b6-3---| x3
D|-----------5-|
A|-------------|
E|-------------|

e|----------------|
B|----6-------8---|
G|-/7---7--/9---9-|
D|----------------|
A|----------------|
E|----------------|

e|-3-3--------3-3------------|
B|-3-3--/15v--3-3------------|
G|---------------------------|
D|---------------------------|
A|----------------------->>>-|  (>>> = pick slide)
E|----------------5b6r5------|

e|----------------|
B|----6-------8---|
G|-/7---7--/9---9-|
D|----------------|
A|----------------|
E|----------------|

Ending:

Guitar 1: Chorus

Guitar 2:

e|-3-3---------|
B|-3-3---------|
G|-----5b6-3---| x3
D|-----------5-|
A|-------------|
E|-------------|

e|----------------|
B|----6-------8---|
G|-/7---7--/9---9-|
D|----------------|
A|----------------|
E|----------------|

Final Chord:

e|-----
B|-----
G|-----
D|-5-5-
A|-5-5-
E|-3-3-
Tap to rate this tab
# A B C D E F G H I J K L M N O P Q R S T U V W X Y Z