Song name
# A B C D E F G H I J K L M N O P Q R S T U V W X Y Z

Datsuns - Human Error tab

VERSE/MAIN RIFF                                            x2
E|--------------------------------------------------------|
B|--------------------------------------------------------|
G|-------10--10----11--8----------6--6--------6--8--8--8--|
D|--8----10--10----11--8--8--8----6--6--6--6--6--8--8--8--|
A|--8----8---8-----9---6--8--8----4--4--6--6--4--6--6--6--|
E|--6---------------------6--6----------4--4--------------|



CHORUS
E|-------------------------------------|
B|-------------------------------------|
G|-11--------10--------11-----------13-|
D|-11--------10--------11-----------13-|
A|-9---------8---------9------------11-|
E|-------------------------------------|



VERSE/MAIN RIFF                                   x2       
E|-----------------------------------------------|
B|-----------------------------------------------|
G|-----------------------------------------------|
D|-----------------------------------------------|
A|-----8--8--9--6--------4--4--------4--6--6--6--|
E|--6--------------6--6--------4--4--------------|



CHORUS



VERSE/MAIN RIFF again



BRIDGE 
E|--8-----11----8-----2----6--|
B|--8-----11----8-----2----6--|
G|--9-----12----9-----3----7--|
D|--10----13----10----4----8--|
A|--10----13----10----4----8--|
E|--8-----11----8-----2----6--|


SOLO (I only tabed the rythm guitar)
                           x3 then     
E|-----------------------|             E|-----------------------------|   
B|-----------------------|             B|-----------------------------|
G|--8----11----------13--|             G|--10-10-10-10----------------|
D|--8----11----11----13--|             D|--10-10-10-10----8-8-8-8-----|
A|--6----9-----11----11--|             A|--8--8--8--8-----8-8-8-8-----|
E|-------------9---------|             E|-----------------6-6-6-6-----|



CHORUS



VERSE/MAIN RIFF



FINAL MELTDOWN

OH !


Listen to the song to get the rythm and the strumming correctly, hope you enjoy the tab !
                          

                               

Tap to rate this tab
 
# A B C D E F G H I J K L M N O P Q R S T U V W X Y Z