Song name
# A B C D E F G H I J K L M N O P Q R S T U V W X Y Z

Datsuns - Hey Paranoid People Whats In Your Head tab

This is played by the Keyboard at the beginning

E|------------------------------------------------------|
B|------13------14--13--12------12--14------12----------|
G|--11------11--------------14----------14------13------|
D|--------------------------------------------------14--|
A|------------------------------------------------------|
E|------------------------------------------------------|





CHORUS
Hey Paranoid people...
E|--2-----5-----0--|
B|--2-----5-----0--|
G|--3-----6-----1--|
D|--4-----7-----2--|
A|--4-----7-----2--|
E|--2-----5-----0--|



RIFF 
E|-----------------------------------------|
B|-----------------------------------------|
G|-----------------------------------------|
D|-----------------------------------------|
A|-----4-----5--4--2--0--2--4--0--2--------|
E|--2-----2--------------------------4--0--|



CHORUS



BRIDGE
E|--8-----2----8-----2----3----2----3----5----8---|
B|--8-----2----8-----2----3----2----3----5----8---|
G|--9-----3----9-----3----4----3----4----6----9---|
D|--10----4----10----4----5----4----5----7----10--|
A|--10----4----10----4----5----4----5----7----10--|
E|--8-----2----8-----2----3----2----3----5----8---|




RIFF
E|-----------------------------------------|
B|-----------------------------------------|
G|-----------------------------------------|
D|-----------------------------------------|
A|-----4-----5--4--2--0--2--4--0--2--------|
E|--2-----2--------------------------4--0--|



CHORUS


RIFF


That's one short easy song, hope you enjoy the tab !
Tap to rate this tab
 
# A B C D E F G H I J K L M N O P Q R S T U V W X Y Z