Song name
# A B C D E F G H I J K L M N O P Q R S T U V W X Y Z

Datsuns - Sittin Pretty tab

h=hammer on
BU=bend up
BD=bend down

guitar one

e-------------BU-BD------------------------------------------------------
b------h--8---10-(10)-8--------------------------------------------------
d-----7-9---------------9-7----over and over-----------------------------
g---9--------------------------------------------------------------------
a------------------------------------------------------------------------
e------------------------------------------------------------------------

guitar two

e------------------------------------------------------------------------
b--------------BU-BD-h---------------------------------------------------
g----------h--0-2-(2)-0--------------------------------------------------
d---------0-2-----------2-0----------------------------------------------
a---2-2-2----------------------------------------------------------------
e------------------------------------------------------------------------
play this part over and over at the same time as the first part

im only twelve but this is 100% right
Tap to rate this tab
# A B C D E F G H I J K L M N O P Q R S T U V W X Y Z