Song name
# A B C D E F G H I J K L M N O P Q R S T U V W X Y Z

Datsuns - Freeze Sucker tab

just the first solo
i dont know about the timing
other solos are coming

|10-8-8/17-15-13-------------------------------------------------686-6----|
|----------------15-13-11-------6-------6-------6--------------68---8-----|
|-------------------------10h12---7-5-7---7-5-7---7-5-7-------7-----------|
|-------------------------------------------------------345---7-----------|
|----------------------------------------------------------0345-----------|
|-------------------------------------------------------------------------|

|8h1010-8-6---6/15-13-------------------------12-10-10h12(x12)-15b(17)----|
|-----------8---------13h15p13-11-13-11-----------------------------------|
|---------------------------------------10-12-----------------------------|
|-------------------------------------------------------------------------|
|-------------------------------------------------------------------------|
|-------------------------------------------------------------------------|

NZ music represent
Tap to rate this tab
# A B C D E F G H I J K L M N O P Q R S T U V W X Y Z