Song name
# A B C D E F G H I J K L M N O P Q R S T U V W X Y Z

Datsuns - Hong Kong Fury tab

----------------------------------------------------------------------------
			     Hong Kong Fury - The Datsuns
----------------------------------------------------------------------------

Tabbed by: Matt Bell
Email: mattybman@hotmail.co.uk

I only tabbed Phil's part as Christian's is a bit more complicated

This is my first ever tab, so don't be too brutal, I know some of it doesn't sound 
but close as I could work it out.

Any feedback positive or negative is welcome.


Tuning: Standard

e|-------------------------------------------------------------------------|
B|-------------------------------------------------------------------------|
G|-------------------------------------------------------------------------|
D|--0h2--0h2--0h2--0-------0-----------------------------------------------|
A|-------------------2-0h2---2p0----0--------------------------------------|
E|--------------------------------3---3--0---------------------------------| x4


e|-------------------------------------------------------------------------|
B|-------------------------------------------------------------------------|
G|-------------------------------------------------------------------------|
D|------7---------7---------7---------7------------------------------------|
A|------7---------7---------7---------7------------------------------------|
E|------5----3-4--5----3-4--5----3-4--5------------------------------------|

e|-------------------------------------------------------------------------|
B|-------------------------------------------------------------------------|
G|-------------------------------------------------------------------------|
D|--0h2--0h2--0h2--0-------0-----------------------------------------------|
A|-------------------2-0h2---2p0----0--------------------------------------|
E|--------------------------------3---3--0---------------------------------| x2

e|-------------------------------------------------------------------------|
B|-------------------------------------------------------------------------|
G|-------------------------------------------------------------------------|
D|------7---------7---------7---------7------------------------------------|
A|------7---------7---------7---------7------------------------------------|
E|------5----3-4--5----3-4--5----3-4--5------------------------------------|

e|-------------------------------------------------------------------------|
B|-------------------------------------------------------------------------|
G|-------------------------------------------------------------------------|
D|--0h2--0h2--0h2--0-------0-----------------------------------------------|
A|-------------------2-0h2---2p0----0--------------------------------------|
E|--------------------------------3---3--0---------------------------------| x4

e|-------------------------------------------------------------------------|
B|-------------------------------------------------------------------------|
G|-------------------------------------------------------------------------|
D|--[9---12--9---5--2--------9--12--9--7]--[5/7]---------------------------|
A|--[9---12--9---5--2--------9--12--9--7]--[5/7]---------------------------|
E|--[7---10--7---3--0--------7--10--7--5]--[3/5]---------------------------|   [         
  Play 3 Times           ]  [ x7]

e|-------------------------------------------------------------------------|
B|-------------------------------------------------------------------------|
G|-------------------------------------------------------------------------|
D|--0h2--0h2--0h2--0-------0-----------------------------------------------|
A|-------------------2-0h2---2p0----0--------------------------------------|
E|--------------------------------3---3--0---------------------------------| x4

e|-------------------------------------------------------------------------|
B|-------------------------------------------------------------------------|
G|-------------------------------------------------------------------------|
D|----7------------[7]-----------------------------------------------------|
A|----7--let ring--[7]-----------------------------------------------------|
E|----5------------[5]-----------------------------------------------------|
                  [x20]

e|-------------------------------------------------------------------------|
B|-------------------------------------------------------------------------|
G|-------------------------------------------------------------------------|
D|--0h2--0h2--0h2--0-------0-----------------------------------------------|
A|-------------------2-0h2---2p0----0--------------------------------------|
E|--------------------------------3---3--0---------------------------------| x4

e|-------------------------------------------------------------------------|
B|-------------------------------------------------------------------------|
G|-------------------------------------------------------------------------|
D|--[9---12--9---5--2--------9--12--9--7]--[5/7]---------------------------|
A|--[9---12--9---5--2--------9--12--9--7]--[5/7]---------------------------|
E|--[7---10--7---3--0--------7--10--7--5]--[3/5]---------------------------|   [         
  Play 3 Times           ]  [ x7]

e|-------------------------------------------------------------------------|
B|-------------------------------------------------------------------------|
G|-------------------------------------------------------------------------|
D|--0h2--0h2--0h2--0-------0-----------------------------------------------|
A|-------------------2-0h2---2p0----0--------------------------------------|
E|--------------------------------3---3--0---------------------------------| x4

e|-------------------------------------------------------------------------|
B|-------------------------------------------------------------------------|
G|-------------------------------------------------------------------------|
D|--7---Final Notes--------------------------------------------------------|
A|--7------Let-------------------------------------------------------------|
E|--5------Ring------------------------------------------------------------|

| /  slide up
| \  slide down
| h  hammer-on
| p  pull-off
| ~  vibrato
| +  harmonic
| x  Mute note
============================================================================
Tap to rate this tab
# A B C D E F G H I J K L M N O P Q R S T U V W X Y Z