Song name
# A B C D E F G H I J K L M N O P Q R S T U V W X Y Z

Datsuns - Messin Around tab

-----------------------------------------------------------------------------
			     Messin' Round - The Datsuns
-----------------------------------------------------------------------------
Tabbed by:Greg Rippon
Email:gregory.rippon@virgin.net

Tuning:normal

Opening riff
e|---------------------------------------------------------------------------|
B|---------------------------------------------------------------------------|
G|-0-5-5-3-0-0-5-3-0---------------------------------------------------------|
D|-0-5-5-3-0-0-5-3-0-3-3-5---------------------------------------------------|
A|-------------------3-3-5---------------------------------------------------|
E|-------------------1-1-3---------------------------------------------------|

Verse

e|--------------------------------------------------------------------------|
B|--------------------------------------------------------------------------|
G|-----------------5-------5-6-7--------------------------------------------|
D|-3-3-5-3-3-5-3-3-5-3-3-5-5-6-7--------------------------------------------|
A|-3-3-5-3-3-5-3-3-3-3-3-5-3-4-5--------------------------------------------|
E|-1-1-3-1-1-3-1-1---1-1-3--------------------------------------------------|

Bridge #1
e|--------------------------------------------------------------------------|
B|--------------------------------------------------------------------------|
G|--------------------------------------------------------------------------|
D|-5------------------8-9-10--------10-8-7-5--------------------------------|
A|-5-(repeating then)-8-9-10-(then)-10-8-7-5--------------------------------|
E|-3------------------6-7-8---------8--6-5-3--------------------------------|

Repeat Bridge #1

Bridge #2
e|--------------------------------------------------------------------------|
B|--------------------------------------------------------------------------|
G|--------------------------------------------------------------------------|
D|-10-5-10-12-15------------------------------------------------------------|
A|-10-5-10-12-15------------------------------------------------------------|
E|-8--7-8--10-13------------------------------------------------------------|

Back to the intro riff

As usual with The Datsuns, is as brilliantly simple as that!


| /  slide up
| \  slide down
| h  hammer-on
| p  pull-off
| ~  vibrato
| +  harmonic
| x  Mute note
=============================================================================
Tap to rate this tab
 
# A B C D E F G H I J K L M N O P Q R S T U V W X Y Z