Song name
# A B C D E F G H I J K L M N O P Q R S T U V W X Y Z

Datsuns - Motherfucker From Hell tab

----------------------------------------------------------------------------
	          MotherFucker from hell - The Datsuns
----------------------------------------------------------------------------
Tabbed by:Ross1234
Email:magicaltrevor72@hotmail.com

main riff x6
e|-------------------------------------------------------------------------|
B|-------------------------------------------------------------------------|
G|6---------------------------6--------------------------------------------|
D|6---------------------------6--------------------------------------------|
A|4-----------2---------2-----4--------------------------------------------|
E|--0-0-2-3-4---0-2-3-4---3-2----------------------------------------------|

verse
e|-------------------------------------------------------------------------|
B|-------------------------------------------------------------------------|
G|-6-6-6-6-6-6-6-6-6-6-6-------6-6-----------------------------------------|
D|-6-6-6-6-6-6-6-6-6-6-6-------6-6-----------------------------------------|
A|-4-4-4-4-4-4-4-4-4-4-4-2-----4-4-----------------------------------------|
E|-------------------------3-2---------------------------------------------|

bridge
e|--------------14b~~~-12----12--------19b-16------------------------------|
B|------------------------14----14------------19-17-19-19b~~~--------------|
G|-----4-4-----------------------------------------------------------------|
D|2----4-4-------------------------2---------------------------------------|
A|2----2-2-------------------------2---------------------------------------|
E|0--------------------------------0---------------------------------------|

chorus
e|-------------------------------------------------------------------------|
B|-------------------------------------------------------------------------|
G|-9-9--9-9-9-8--8-8-8--8-8--11-11-11-11--15-15-15-13-13-13-13-13-13-9--9--|
D|-9-9--9-9-9-8--8-8-8--8-8--11-11-11-11--15-15-15-13-13-13-13-13-13-9--9--|
A|-7-7--7-7-7-6--6-6-6--6-6--9--9--9--9---13-13-13-11-11-11-11-11-11-7--7--|
E|-------------------------------------------------------------------------|

e|-------------------------------------------------------------------------|
B|-------------------------------------------------------------------------|
G|9-9-9-9--8----8--8-8-8-11-11---------------------------------------------|
D|9-9-9-9--8----8--8-8-8-11-11---4-----------------------------------------|
A|7-7-7-7--6----6--6-6-6-9--9--/-4-----------------------------------------|
E|-------------------------------2-----------------------------------------|

breakdown type bit
e|-------------------------------------------------------------------------|
B|-------------------------------------------------------------------------|
G|-6-----------6-----------------------------------------------------------|
D|-6-----------6-------1---------------------------------------------------|
A|-4-----2-----4---0-0-----------------------------------------------------|
E|---------3-2-------------------------------------------------------------|

i don't know the solo but i am working on it
heres the song structure:
main riff
verse
main riff
verse
main riff
bridge
chorus
breakdown
main riff
bridge
chorus
(solo)
main riff
chorus
main riff
| b  bend note
| /  slide up
| \  slide down
| h  hammer-on
| p  pull-off
| ~  vibrato
| +  harmonic
| x  Mute note
============================================================================
Tap to rate this tab
 
# A B C D E F G H I J K L M N O P Q R S T U V W X Y Z