Song name
# A B C D E F G H I J K L M N O P Q R S T U V W X Y Z

Datura - Path Of Darkness And Light tab

Help us improve GuitareTab! Take a short survey!
ok. so i posted the intr0. Now i bet ud like to know how to play the rest rite? 0k. Here goes.

After u do the solo which, u need 2 c the other 1 to kno how to play it,
u do the chords at the very beginning. Play those twice. Then
 goes to:
-0--0-0--------0---0-------0------|
-0--0--0-------0----0-----0-0-----|
-9--9---9------7-----7---7---7----|
-9--9----9---x-7------7-7-----7---|
-7--7-----7--x-5-5-----5----------|
-0--0------0---0------------------|

-------0-------0------------------|
--------0-----0-0-----------------|
---------0---0---0----------------|
-10-------------------------------|
-10-------------------------------|
-8--8------8-------8--------------|

-0---0-------0---------------------|
-0----0-----0-0--------------------|
-7-----7---7---7-------------------|
-7------7-7-----7------------------|
-5-5-----5-------------------------|
-0---------------------------------|

-0--0-------0-----------------------|
-0---0-----0-0----------------------|
-7----7---7---7---------------------|
-5-----5-5-----5--------------------|
-0-0----0---------------------------|
-0----------------------------------|
Then do all that over again then go to Bridge:
-----------------------------------------|
-----------------------------------------|
-9------7------5----2------5-5----5------|
-9-9-xx-7-7-xx-5-5--2-2-xx-5-5-xx-5-xx---|
-7-7-xx-5-5-xx-3-2--0-0-xx-3-3-xx-3-xx---|
-0------0--------------------------------|
Play Bridge 4 times then:
-0--0-0-0-0--0-0-0-0--0-0-0---------------------------|
-0--0-0-0-0--0-0-0-0--0-0-0---------------------------|
-9--9-9-9-9--9-9-9-9--9-9-9---------------------------|
-9--9-9-9-9--9-9-9-9--9-9-9---------------------------|
-7--7-7-7-7--7-7-7-7--7-7-7---------------------------|
-0--0-0-0-0--0-0-0-0--0-0-0---------------------------|

-0--0-0-0-0--0-0-0-0----------------------------------|
-3--3-3-3-3--3-3-3-3----------------------------------|
-2--2-2-2-2--2-2-2-2-xx-------------------------------|
-0--0-0-0-0--0-0-0-0-xx-------------------------------|
-0--0-0-0-0--0-0-0-0----------------------------------|
------------------------------------------------------|
Play that 4 times then:
-0--0-0-0-0--0-0-0-0--0-0-----------------------------------------|
-0--0-0-0-0--0-0-0-0--0-0-----------------------------------------|
-9--9-9-9-9--9-9-9-9--9-9-----------------------------------------|
-9--9-9-9-9--9-9-9-9--9-9-----------------------------------------|
-7--7-7-7-7--7-7-7-7--7-7-----------------------------------------|
-0--0-0-0-0--0-0-0-0--0-0-----------------------------------------|

-0-0-------------------------------------------|
-3-3----1-1----1-------------------------------|
-2-2-xx-2-2-xx-2-xx----------------------------|
-0-0-xx-2-2-xx-2-xx----------------------------|
-0------0------0-------------------------------|
-----------------------------------------------|

Thats all i know. After that part you go to the beginning Chords then some solos which i 
know how to play yet.
Related for Path Of Darkness And Light tab